Cifra Club

Sonda-me, Usa-me

Ozielzinho

Cifrado: Principal (guitarra y guitarra eléctrica)
tono: A
Intro

E|-----------------/13-12-----------------------------------|
B|-----13-13^14-15--------13--------------15-13-12--13-13~--|
G|-/12-----------------------12-12/14~----------------------|
D|----------------------------------------------------------|
A|----------------------------------------------------------|
E|----------------------------------------------------------|

Riff 1

E|--------------------------------------------------------------------------|
B|---------------------5h6p5------------------------------------------------|
G|----5-5--7-5/7~----5-------7p5-4/5~-------5-5-5h7~----4h5-----------------|
D|-/5------------------------------------/7-----------------5/7~----5/7\5~--|
A|--------------------------------------------------------------------------|
E|--------------------------------------------------------------------------|

E|------------------------------------------------------------------------------|
B|---------------------5h6p5-------------------------------------6h8p6--6r5-----|
G|----5-5--7-5/7~----5-------7p5-4/5~--------5-5~----7/9\7~-----------------5~--|
D|-/5------------------------------------5h7-------7-----------5----------------|
A|------------------------------------------------------------------------------|
E|------------------------------------------------------------------------------|

E|--------------------------------------------|
B|--------------------6/8~----------/10-8-8~--|
G|---------------/4-5-------4\2~--------------|
D|-----5-5/7~---------------------------------|
A|-3/5----------------------------------------|
E|--------------------------------------------|

Refrão

E|--------------------------------------------------------------------------|
B|----10--12--12/13--13-13--12-12--10-10------/13--13-13--12-12--10-10------|
G|-9--------------------------------------12----------------------------12--|
D|--------------------------------------------------------------------------|
A|--------------------------------------------------------------------------|
E|--------------------------------------------------------------------------|

E|---------------------------------------------------------------------|
B|-----------------------------------------------------------------12--|
G|-12/14--14-14--12--12------------12/14--14-14--12--12----12--14------|
D|-----------------------10-10--10-------------------------------------|
A|---------------------------------------------------------------------|
E|---------------------------------------------------------------------|

E|---------------------------------------------------------------------|
B|--12/13--13-13--12-12--10-10------/13--13-13--12-12--10-10-----------|
G|------------------------------12----------------------------12-------|
D|---------------------------------------------------------------------|
A|---------------------------------------------------------------------|
E|---------------------------------------------------------------------|

E|---------------------------------------------------------------------------------------|
B|-----------------------------------------------------------------------------/10--8-8~-|
G|-12/14--14-14--12--12------------12/14--14-14--12--12----12/14\7--5--7/9~--------------|
D|-----------------------10-10--10-------------------------------------------------------|
A|---------------------------------------------------------------------------------------|
E|---------------------------------------------------------------------------------------|
00:00 / 00:00
Otros videos de esta canción
Repetir
Otros videos de esta canción
Compositor no encontrado.
Colaboración y revisión:
  • Rummenigge
237 vistas
    • ½ Tono
    • A
    • Bb
    • B
    • C
    • Db
    • D
    • Eb
    • E
    • F
    • F#
    • G
    • Ab
  • Agregar a la lista

    0 comentarios

    Ver todos los comentarios

    ¿Lograste tocar?

    8 Tocaron 0 Aún no

    ¡Graba un video tocando Sonda-me, Usa-me y envíanoslo!

    00:00 / 00:00
    OK