Notificações Amigos pendentes

      Ozzy Osbourne

      Dreamer

      2.005 reproducciones
      Tono: C#
      Intro:
      
           F7M
      E|-------------------------------------|
      B|-------------------------------------|
      G|------13-13-11-11-10-10-8-8-10-10~---|
      D|-------------------------------------|
      A|-12-8--------------------------------|
      E|-10-8--------------------------------|
      
      
      Verso 1:
      
      
           C#                   Bbm
      E|-4---4---4---4---4---6/8-6~----------|
      B|---6---6---6---6---6-----------------|
      G|-------------------------------------|
      D|-------------------------------------|
      A|-------------------------------------|
      E|-------------------------------------|
      
      
           C#                   Bbm
      E|-4---4---4---4---4---8-8-6~----------|
      B|---6---6---6---6---6-----------------|
      G|-------------------------------------|
      D|-------------------------------------|
      A|-------------------------------------|
      E|-------------------------------------|
      
      
           F#                             Ebm
      E|-9--6--9--6--9--6--9--6--9--6--11/13-11-11~-----|
      B|------------------------------------------------|
      G|------------------------------------------------|
      D|------------------------------------------------|
      A|------------------------------------------------|
      E|------------------------------------------------|
      
      
           G#
      E|----------8----------|
      B|--11--11-----9~\-----|
      G|---------------------|
      D|---------------------|
      A|---------------------|
      E|---------------------|
      
      
         C#                   Bbm
      E|-4---4---4---4---4---6/8-6~----------|
      B|---6---6---6---6---6-----------------|
      G|-------------------------------------|
      D|-------------------------------------|
      A|-------------------------------------|
      E|-------------------------------------|
      
      
           C#                   Bbm
      E|-4---4---4---4---4---8-8-6~----------|
      B|---6---6---6---6---6-----------------|
      G|-------------------------------------|
      D|-------------------------------------|
      A|-------------------------------------|
      E|-------------------------------------|
      
      
           F#                             Ebm
      E|-9--6--9--6--9--6--9--6--9--6--11/13-11-11~-----|
      B|------------------------------------------------|
      G|------------------------------------------------|
      D|------------------------------------------------|
      A|------------------------------------------------|
      E|------------------------------------------------|
      
      
           G#
      E|----------8----------|
      B|--11--11-----9~\-----|
      G|---------------------|
      D|---------------------|
      A|---------------------|
      E|---------------------|
      
      
      
      REFRAO:
      
      
           C#                 Bbm
      E|----------11---9~--9-8-9-8---8~----|
      B|--9-9-9--------------------9-------|
      G|-----------------------------------|
      D|-----------------------------------|
      A|-----------------------------------|
      E|-----------------------------------|
      
      
           Fm                     G#
      E|-4--6--4--11--13----------------------------------|
      B|------------------14~--14--13--14--13------13~\---|
      G|---------------------------------------13---------|
      D|--------------------------------------------------|
      A|--------------------------------------------------|
      E|--------------------------------------------------|
      
      
      Verso 2:
      
      
          C#                    Bbm
      E|-4-4---4---4--4---4---6/8-6~-------|
      B|-----6---6---6-6----6--------------|
      G|-----------------------------------|
      D|-----------------------------------|
      A|-----------------------------------|
      E|-----------------------------------|
      
      
         C#                     Bbm
      E|-4-4---4---4--4---4---8-8p6~-------|
      B|-----6---6---6-6----6--------------|
      G|-----------------------------------|
      D|-----------------------------------|
      A|-----------------------------------|
      E|-----------------------------------|
      
      
           F#                             Ebm
      E|-9-9-6--9--6--9p6--9--6--9--6--11/13-11-11~----|
      B|-----------------------------------------------|
      G|-----------------------------------------------|
      D|-----------------------------------------------|
      A|-----------------------------------------------|
      E|-----------------------------------------------|
      
      
           G#
      E|----------8----------|
      B|--11--11-----9~\-----|
      G|---------------------|
      D|---------------------|
      A|---------------------|
      E|---------------------|
      
      
       2°REFRAO:
      
      
      
           C#                 Bbm
      E|----------11---9~--9p8-9-8----8~-8\6\4~----|
      B|--9-11-9--------------------9--------------|
      G|-------------------------------------------|
      D|-------------------------------------------|
      A|-------------------------------------------|
      E|-------------------------------------------|
      
      
           Fm                     G#
      E|-13--16--13--11--13-------------------------------------|
      B|---------------------14~--14--13--14--13-14\12--13~\----|
      G|--------------------------------------------------------|
      D|--------------------------------------------------------|
      A|--------------------------------------------------------|
      E|--------------------------------------------------------|
      
      
      Ponte:
      
      
           Ebm                     G#
      E|-11-11-9-11p9-11-9----9-11/13-11-9-11~----|
      B|-------------------11---------------------|
      G|------------------------------------------|
      D|------------------------------------------|
      A|------------------------------------------|
      E|------------------------------------------|
      
      
           Ebm                     G#
      E|-11-11-9-11p9-11-9----9-9\8~--------------|
      B|-------------------11---------------------|
      G|------------------------------------------|
      D|------------------------------------------|
      A|------------------------------------------|
      E|------------------------------------------|
      
      
           Ebm                     G#
      E|-11-11-9-11p9-11-9----9-11/13-11-9-11~----|
      B|-------------------11---------------------|
      G|------------------------------------------|
      D|------------------------------------------|
      A|------------------------------------------|
      E|------------------------------------------|
      
      
           Ebm                     G#
      E|-11-11-9-11p9-11-9----9-9\8~--------------|
      B|-------------------11---------------------|
      G|------------------------------------------|
      D|------------------------------------------|
      A|------------------------------------------|
      E|------------------------------------------|
      
      
           G#
      E|-13--16--13-------------------------------|
      B|------------14~---------------------------|
      G|------------------------------------------|
      D|------------------------------------------|
      A|------------------------------------------|
      E|------------------------------------------|
      
      
      SOLO:
      
      
      
      E|--------------------------------------------------------|
      B|------------------------------4h6h7-9/11----------------|
      G|-----6-8-8b10r8p6-8---------6------------10~--8b10r8p6~-|
      D|--/6----------------8~---/6-----------------------------|
      A|--------------------------------------------------------|
      E|--------------------------------------------------------|
      
      
      E|-----------------14-16/18------------------------------------------|
      B|-----14-16-16/18----------18~--16b18r16b18~--16b18~~~-18r16p14~13~-|
      G|-/13---------------------------------------------------------------|
      D|-------------------------------------------------------------------|
      A|-------------------------------------------------------------------|
      E|-------------------------------------------------------------------|
      
      
      E|--------------------|
      B|-16b18~~~b----13~~~-|
      G|--------------------|
      D|--------------------|
      A|--------------------|
      E|--------------------|
      
      
      E|-------------------------------------------|
      B|-------------------------------14-16-18~---|
      G|-------------------13-15-17-17-------------|
      D|----------13-15-16-------------------------|
      A|-13-15-16----------------------------------|
      E|-------------------------------------------|
      
      
      Passagem:
      
      
           F7M
      E|--------------------------------|
      B|--------------------------------|
      G|-8-8-6-6-5-5-3-3-5-5~-----------|
      D|--------------------------------|
      A|--------------------------------|
      E|--------------------------------|
      
      
      
      Verso 3:
      
      
          C#                    Bbm
      E|-4-4---4---4--4---4---6/8-6~-------|
      B|-----6---6---6-6----6--------------|
      G|-----------------------------------|
      D|-----------------------------------|
      A|-----------------------------------|
      E|-----------------------------------|
      
      
         C#                     Bbm
      E|-4-4---4---4--4---4---8-8p6~-------|
      B|-----6---6---6-6----6--------------|
      G|-----------------------------------|
      D|-----------------------------------|
      A|-----------------------------------|
      E|-----------------------------------|
      
      
           F#                             Ebm
      E|-9-9-6--9--6--9p6--9--6--9--6--11/13-11-11~----|
      B|-----------------------------------------------|
      G|-----------------------------------------------|
      D|-----------------------------------------------|
      A|-----------------------------------------------|
      E|-----------------------------------------------|
      
      
           G#
      E|----------8----------|
      B|--11--11-----9~\-----|
      G|---------------------|
      D|---------------------|
      A|---------------------|
      E|---------------------|
      
      
      3° Refrao:
      
            C#                 Bbm
      E|-----------11---9~--9\8-9-8---8~--8\6\4~------|
      B|--999-11-9------------------9-----------------|
      G|----------------------------------------------|
      D|----------------------------------------------|
      A|----------------------------------------------|
      E|----------------------------------------------|
      
      
           Fm                     G#
      E|-4--4--4--11--13----------------------------------------------|
      B|------------------14~--14--13--14--13-13\12----13~-13-11------|
      G|--------------------------------------------12-----------13~--|
      D|--------------------------------------------------------------|
      A|--------------------------------------------------------------|
      E|--------------------------------------------------------------|
      
      
           Fm                     G#
      E|-13--16--13--11--13-------------------------------------------------------|
      B|---------------------14~--14--13--14--13-14p13--12-13~-13-11h13p11--------|
      G|-------------------------------------------------------------------13~----|
      D|--------------------------------------------------------------------------|
      A|--------------------------------------------------------------------------|
      E|--------------------------------------------------------------------------|
      
      
           Fm                     G#
      E|------------11-13------------------------------|
      B|------------------14~---13-13-13-14-13\11-13~--|
      G|--13-15-13-------------------------------------|
      D|-----------------------------------------------|
      A|-----------------------------------------------|
      E|-----------------------------------------------|
      
      
          G#
      E|-13--16--13--11\9~~----------------------------|
      B|-----------------------------------------------|
      G|-----------------------------------------------|
      D|-----------------------------------------------|
      A|-----------------------------------------------|
      E|-----------------------------------------------|
      
      
      Frase final:
      
      
           F7M
      E|-----------------------------------------------------------------|
      B|-------------------------------------------------------1---------|
      G|------------------------------------------------------2-2--------|
      D|-6-6-4-4-3-3-1-1-3-3~----6-6-4--4--3--3---1---1---3--3-----------|
      A|-----------------------------------------------------------------|
      E|-----------------------------------------------------------------|
      
      
      
       letra:
      
      intro
      
      verso 1:
      
      C#                               Bbm
      Gazing through the window at the world outside
      C#                             Bbm
      Wondering will mother earth survive
      F#                             Eb             G#
      Hoping that mankind will stop abusing her sometime
      
      C#                              Bbm
      After all there's only just the two of us
          C#                                 Bbm
      And here we are still fighting for our lives
      F#                        Eb                      G#
      Watching all of history repeat itself, Time after time
      
      refrao 1:
      
                 C#
      I'm just a dreamer
        Bbm            Fm        G#
      I dream my life away
                 C#
      I'm just a dreamer
        Bbm            Fm        G#
      Who dreams of better days
      
      verso 2:
      
      C#                            Bbm
      I watch the sun go down like everyone of us
      C#                            Bbm
      I'm hoping that the dawn will bring good signs
      F#                            Eb                     G#
      A better place for those who will come after us, this time
      
      refrao 2:
                 C#
      I'm just a dreamer
        Bbm            Fm          G#
      I dream my life away, oh yeah
                 C#
      I'm just a dreamer
        Bbm            Fm          G#
      Who dreams of better days
      
      ponte:
      
      Ebm                     G#
      Your higher power may be God or Jesus Christ
      Ebm                     G#
      It doesn't really matter much to me
      Ebm                     G#
      Without each others help there ain't no hope for us
      Ebm                     G#
      I'm living in a dream of fantasy, oh yeah yeah yeah
      
      solo
      
      passagem
      
      verso 3:
      
      C#                         Bbm
      If only we could all just find serenity
      C#                         Bbm
      It would be nice if we could live as one
      F#                         Eb                 G#
      When will all this anger hate and bigotry be done
      
      refrao 3:
                 C#
      I'm just a dreamer
        Bbm            Fm        G#
      I dream my life away, today
                 C#
      I'm just a dreamer
        Bbm            Fm        G#
      Who dreams of better days, oh yeah
                 C#
      I'm just a dreamer
        Bbm            Fm        G#
      Who's searching for the way, today
                 C#
      I'm just a dreamer
        Bbm            Fm        G#
      Dreaming my life away, oh yeah yeah yeah
      
      frase final
        Composición: Marti Frederiksen / Ozzy OsbourneColaboración y revision:
        • Bruno Andrade
        • Caio Eduardo
        • Vynyuyne

        Comentarios 10

        140 .
        • Shadow Shadow: Em 06/10/2014 17:18

          video aula!!! por favor!!!

        • Isabele Isabele: Em 12/09/2013 22:00

          Qual é o ritimo da musica ?

        • Isabele Isabele: Em 12/09/2013 21:55

          Para os iniciantes troquem o tom para G fica bem mais facil :)

        • roberth.gabriel.33 roberth.gabriel.33: Em 16/08/2013 09:34

          Caramba, é bem fácil, mas algumas vezes da uma confução. kkk

        • brunotorres brunotorres: Em 16/01/2013 15:51

          Deveriam começar as aulas de teclado/piano com esta música!!

        • drezz drezz: Em 08/05/2011 16:10

          Cara tinha que ter uma Video aula dessa musica! é muito boa e principalmente ensinando o Solo dela!

        • Slash Slash: Em 27/04/2011 14:21

          lixo

          • meisme meisme: Em 25/07/2011 16:40

            vc que lixo
            os cara faz um grande favor de ir procura a cifra e tu fica xingando eles
            vai toma no (O)

          • detonator11 detonator11: Em 27/12/2012 22:38

            e ainda fica botando o nickname de slash ¬¬ quem é vc, bunda mole..'--'

          • falon.aiy falon.aiy: Em 08/12/2013 14:41

            Slicho o.o

        140 cancelar

        ¿conseguiste tocar?

        • •••

        covers

        ¡Grave un vídeo tocando Dreamer y envie para nosotros!

        Ex.: http://www.youtube.com/watch?v=0IvSvIwGdwk
        ver cover de otras canciones »
        0:00 / 0:00
        Esta versão de cifra não é usada na videoaula. Exiba a cifra correta.
        1 versão de contrabajo reproducciones contribuición y correción
        1 versão de armónica reproducciones contribuición y correción
        2 versões de Guitar Proformatodownloadscontribuición
        play/pausefechar subir/bajar velocidad
        6ª cuerda E5ª cuerda A4ª cuerda D3ª cuerda G2ª cuerda B1ª cuerda E
          acordes
          publicidad
          cerrar
          ok