Cifra Club

Mama I'm Coming Home

Ozzy Osbourne

Cifrado: Principal (guitarra y guitarra eléctrica)
tono: Eb (con acordes en la forma de E) Afinación: Eb Ab Db Gb Bb Eb
[Intro] E

(Violão 1 – Seis Cordas)

E|-12-------------------------------------------------|
B|----12----------------------------------------------|
G|-------b13r11--9------------------------------------|
D|----------------------------------------------------|
A|----------------------------------------------------|
E|----------------------------------------------------|

(Violão 2 – Doze Cordas)

E|-----0------0----------0------0---------------------|
B|-------0------0----------0------0-------------------|
G|---9-----8------8----6-----4------4-----------------|
D|----------------------------------------------------|
A|----------------------------------------------------|
E|-0--------------------------------------------------|

E|---0------0--------0-------0------------------------|
B|-----0------0--------0-------0----------------------|
G|-2-----1------1---------1---------------------------|
D|----------------4-------2---------------------------|
A|----------------------------------------------------|
E|----------------------------------------------------|

E|-----0------0----------0------0---------------------|
B|-------0------0----------0------0-------------------|
G|--/9-----8------8----6-----4------4-----------------|
D|----------------------------------------------------|
A|----------------------------------------------------|
E|-0--------------------------------------------------|

E|---0------0--------0-------0------------------------|
B|-----0------0--------0-------0----------------------|
G|-2-----1------1---------1---------------------------|
D|----------------4-------2---------------------------|
A|----------------------------------------------------|
E|----------------------------------------------------|


[Primeira Parte]

(Violão 2 – Doze Cordas)

E|-----0------0----------0------0---------------------|
B|-------0------0----------0------0-------------------|
G|--/9-----8------8----6-----4------4-----------------|
D|----------------------------------------------------|
A|----------------------------------------------------|
E|-0--------------------------------------------------|

E|---0------0--------0-------0------------------------|
B|-----0------0--------0-------0----------------------|
G|-2-----1------1---------1---------------------------|
D|----------------4-------2---------------------------|
A|----------------------------------------------------|
E|----------------------------------------------------|
    A9
E|--------0--------------0------------------|
B|----------0--------------0----------------|
G|-----2------2-------2------2--------------|
D|---2--------------2-----------------------|
A|-0--------------0-------------------------|
E|------------------------------------------|
    E
E|--------0----------0-------0--------------|
B|----------0----------0-------0------------|
G|------------1--1h2-----2/4----------------|
D|-----2------------------------------------|
A|---2--------------------------------------|
E|-0----------------------------------------|

 E
Times have changed

And times are strange

Here I come
                     A9
But I ain't the same
                  E
Mama, I'm coming home


Times gone by

Seems to be

You could have been
                      A9
A better friend to me
                  E
Mama, I'm coming home


[Segunda Parte]

     C#m                 A9
You took me in and you drove me out
           E4        ( E    E4  E )
Yeah, you had me hypnotized
 C#m                A
Lost and found and turned around
        B
By the fire in your eyes

    B
E|-------7---------------7------------------|
B|-----7----7--------------7----------------|
G|---8--------8--------8-----8--------------|
D|-9------------9----9---------9------------|
A|------------------------------------------|
E|-----------------7------------------------|

[Terceira Parte]

Guitarra Solo1)

E|----------------------------------------------------|
B|--0-----0-----0-----0-------------------------------|
G|-/4----/4----/4b6--b6r4-----------------------------| (2x)
D|----------------------------------------------------|
A|----------------------------------------------------|
E|----------------------------------------------------|

     E
You made me cry

You told me lies
                                 A9
But I can't stand to say goodbye
                  E
Mama, I'm coming home

Guitarra Solo2)

E|----------------------------------------------------|
B|--------------9b10--b10r9~--------------------------|
G|-/9----/9-------------------------------------------|
D|----------------------------------------------------|
A|----------------------------------------------------|
E|----------------------------------------------------|

I could be right

I could be wrong

It Hurts so bad, and it's been so long
A9                   E
   Mama, I'm coming home


[Quarta Parte]

 C#m                      A9
Selfish love, yeah we're both alone
     E4             (E    E4  E )
The ride before the fall,    yeah
    C#m                  A9
But I'm gonna take this heart of stone
        B5                ( F#  G# )
I just got to have it all


[Primeiro Refrão]

A9                                E
   I've seen your face a hundred times
A9                       E   ( F#  G# )
   Everyday we've been apart
A9          B9             E         A9
   I don't care about the sunshine, yeah
              B11
'Cause mama, mama
            C   D11  E
I'm coming home
            C   D11  B5
I'm coming home

Guitarra Solo1)

E|----------------------------------------------------|
B|----------------------------------------------------|
G|----------------------------------------------------|
D|-/11~---9~---7~--7h9p7\6--7/9\7p6-------------------|
A|----------------------------------------------------|
E|----------------------------------7/9---------------|

Guitarra Solo2)

E|----------------------------------------------------|
B|----------------------------------------------------|
G|----------------------------------------------------|
D|----------------------------------------------------|
A|-/12~---11~---9~--9h11p9\7--9/11\9p7----------------|
E|-------------------------------------7/9------------|

(Violão 1 – Seis cordas)

    A9               B11
E|---------0----------------0---------------|
B|-----------0----------------0-------------|
G|-----2-------2--------4-------4-----------|
D|---2---2-------2----4---4-------4---------|
A|-0----------------2-----------------------|
E|------------------------------------------|
    C                  D11
E|------------------------------------------|
B|------------------------------------------|
G|-----0-------0----------0-------0---------|
D|---2---2---2---2------4---4---4---4-------|
A|-3-------3----------5-------5-------------|
E|------------------------------------------|
    B5
E|------------------------------------------|
B|------------------------------------------|
G|-4-4-4-4--4-4-4-4--4-4-4-4---4------------|
D|-4-4-4-4--4-4-4-4--4-4-4-4---4------------|
A|-2-2-2-2--2-2-2-2--2-2-2-2---2------------|
E|------------------------------------------|

[Ponte] G  A  E
       G5 E
       G  A  E
       B5

(Violão 1 – Seis cordas)

E|-3----/--5----/12---------12------------------------|
B|---3--/----5--/12------12---------------------------|
G|-----5/------6/13---13------------------------------|
D|----------------------------------------------------|
A|----------------------------------------------------|
E|----------------------------------------------------|

E|-3-2-------2-4~-------------------------------------|
B|-----5-3-5------------------------------------------|
G|----------------------------------------------------|
D|----------------------------------------------------|
A|----------------------------------------------------|
E|----------------------------------------------------|

E|-3----/--5----/12---------12------------------------|
B|---3--/----5------------0---------------------------|
G|-----5/------6/13---13------------------------------|
D|----------------------------------------------------|
A|----------------------------------------------------|
E|----------------------------------------------------|
    B5
E|------------------------------------------|
B|------------------------------------------|
G|-4-4-4-4--4-4-4-4--4-4-4-4---4-4-4-4------|
D|-4-4-4-4--4-4-4-4--4-4-4-4---4-4-4-4------|
A|-2-2-2-2--2-2-2-2--2-2-2-2---2-2-2-2------|
E|------------------------------------------|


(Violão 2 – Doze Cordas)

    G       A      E
E|----------------0------0------------------|
B|-0-------2------0----0----0---------------|
G|---0-------2-------1--------0-------------|
D|-----0-------2----------------2-----------|
A|---------0--------------------------------|
E|-3--------------0-------------------------|
    G5             E
E|-----------------------0------------------|
B|-3-------3------0----0---0----------------|
G|---0-------0----1--1-------0--------------|
D|-----0-------0---------------2------------|
A|------------------------------------------|
E|-3--------------0-------------------------|
    G       A      E
E|-----------------------0------------------|
B|-0-------2------0----0----0---------------|
G|---0-------2-------1--------0-------------|
D|-----0-------2----------------2-----------|
A|---------0--------------------------------|
E|-3--------------0-------------------------|
   B5
E|------------------------------------------|
B|------------------------------------------|
G|-4-4-4-4--4-4-4-4--4-4-4-4---4-4-4-4------|
D|-4-4-4-4--4-4-4-4--4-4-4-4---4-4-4-4------|
A|-2-2-2-2--2-2-2-2--2-2-2-2---2-2-2-2------|
E|------------------------------------------|


[Solo] A9  E  A9  E
      A9  B9 ( C#m  B9  A9 ) B5

Parte 1

E|----------------------------------------------------|
B|----------------------------------------------------|
G|------9----9--11b13---------------------------------|
D|-9h11---11------------------------------------------|
A|----------------------------------------------------|
E|----------------------------------------------------|

E|-12-----12------------------------------------------|
B|-12b14--12b14r12p10--12--10--10h12p10-9~~-----------|
G|----------------------------------------------------|
D|----------------------------------------------------|
A|----------------------------------------------------|
E|----------------------------------------------------|

Parte 2

E|----------------------------------------------------|
B|----------------------------------------------------|
G|------9----9--11b13---------------------------------|
D|-9h11---11------------------------------------------|
A|----------------------------------------------------|
E|----------------------------------------------------|

E|-12-----12------------------------------------------|
B|-12b14--12b14r12p10--12--10--10h12p10-9~~-----------|
G|----------------------------------------------------|
D|----------------------------------------------------|
A|----------------------------------------------------|
E|----------------------------------------------------|

Parte 3

E|----------------------------------------------------|
B|----------------------------------------------------|
G|------9----9----11b13r11p9-11~--9-------------------|
D|-9h11---11------------------------------------------|
A|----------------------------------------------------|
E|----------------------------------------------------|

E|-14b16r--14b16r--12h14-12----14b16r14p12-14~~-------|
B|----------------------------------------------------|
G|----------------------------------------------------|
D|----------------------------------------------------|
A|----------------------------------------------------|
E|----------------------------------------------------|

Parte 4

E|-------17-18-19-20----------------------------------|
B|-19b21-------------b21r19p17----17~-----------------|
G|-----------------------------18---------------------|
D|----------------------------------------------------|
A|----------------------------------------------------|
E|----------------------------------------------------|


[Quinta Parte]

     C#m                 A9
You took me in and you drove me out
           E4        ( E    E4  E )
Yeah, you had me hypnotized,    yeah
 C#m                A
Lost and found and turned around
        B5               ( F#  G# )
By the fire in your eyes


[Segundo Refrão]

A9                                 E
   I've seen your face a hundred times
A9                       E
   Everyday we've been apart
A9          B9             E         A9
   I don't care about the sunshine, yeah
              B11
'Cause mama, mama
            C   D11  E
I'm coming home
            C   D11  E
I'm coming home
            C   D11  E
I'm coming home
            C   D11  E
I'm coming home

Guitarra Solo1)

E|----------------------------------------------------|
B|--------------------------------12------------------|
G|-9~-11b12r11--11b12r11p9-11b13~~---b13r11--9-11p9---| (3x)
D|--------------------------------------------------11|
A|----------------------------------------------------|
E|----------------------------------------------------|

E|----------------------------------------------------|
B|----------------------------------------------------|
G|-9~-11b12r11--11b13------------~--------------------|
D|----------------------------------------------------|
A|----------------------------------------------------|
E|----------------------------------------------------|

Guitarra Solo2)

E|----------------------------------------------------|
B|13~-15b17r15-------------------15-------------------|
G|-------------14b16r14p13-14b16~---b16r14-13-14p13---|
D|--------------------------------------------------14|
A|----------------------------------------------------|
E|----------------------------------------------------|

E|----------------------------------------------------|
B|-13~-15b17r15--17b18r17~----------------------------|
G|----------------------------------------------------|
D|----------------------------------------------------|
A|----------------------------------------------------|
E|----------------------------------------------------|

(Violão 2 – Doze cordas)

E|------0-----0-------0---0-----0---0-----------------|
B|--------0-----0---0-------0---0---0-----------------|
G|---/9-----8-----6-----4-----2---1-------------------|
D|----------------------------------------------------|
A|----------------------------------------------------|
E|-0--------------------------------------------------|
                   E
E|---0-----0------0-------------------------|
B|-----0-----0----0-------------------------|
G|-2-----1-----4--1-------------------------|
D|----------------2-------------------------|
A|----------------2-------------------------|
E|----------------0-------------------------|
00:00 / 00:00
Otros videos de esta canción
Repetir
Otros videos de esta canción
Composición de Lemmy / Ozzy Osbourne / Zakk Wylde
6.911 vistas
  • Simplificar cifrado
    • ½ Tono
    • A
    • Bb
    • B
    • C
    • Db
    • D
    • Eb
    • E
    • F
    • F#
    • G
    • Ab
  • Agregar a la lista

    0 comentarios

    Ver todos los comentarios
    00:00 / 00:00
    Capítulos
    • Tocando a música
    • Dicas Iniciais e equipamentos
    • Acordes da Introdução e Primeira Parte
    • Tocando Introdução e Primeira Parte
    • Ensinando Ritmo da Introdução e Primeira Parte
    • Acordes da Segunda Parte
    • Tocando Segunda Parte
    • Ensinando Ritmo da Segunda Parte
    • Acordes do Refrão
    • Tocando Repetições e Refrão
    • Acordes da Ponte
    • Tocando Ponte e Solo
    • Ensinando Ritmo da Ponte e Solo
    • Encerramento
    • Erros de gravação e créditos
    OK