Notificações Amigos pendentes

      Ozzy Osbourne

      Time After Time

      50 reproducciones
      Tono: G
         
      Guitarra I
                                                                                  
      
      D#||--------10---------9------9---------|--10-----9--------7---------------|
      A#||------------10-------10------10-----|-----7------7-------7---10-----12-|
      F#||------9--------9--------9-------9---|-------7------7-------7-----7--0--|
      C#||----7------------7----------------0-|----------------0-----------------|
      G#||--0---------------------------------|----------------------------------|
      D#||------------------------------------|----------------------------------|
      
      
      
                                                                            
      
      --10---------9--------7-------5------|-------------------------------|
      -----12/--10---10/--8---8---7---7----|----7---7-------8-----7------7-|
      --------0---------0-------0-------0--|------7----7------7------7-----|
      -------------------------------------|--0-----------0-----0------0---|
      -------------------------------------|-------------------------------|
      -------------------------------------|-------------------------------|
      
      
      
                                                                         
      
      --------0-----------------------|--------0------------------------|
      -----------5--------------------|-----------5---------------------|
      ------6------6---7-----6------6-|------6------6-------------------|
      ----7----------7---7------7-----|----7----------7---7-----7-----7-|
      --0------------------0------0---|--0--------------5---5-4---4-----|
      --------------------------------|-----------------------------7---|
      
      
      
                                                                        
      
      --------0-----------------------|--------0--------------0--------|
      -----------5--------------------|----3------3---3---3------3---3-|
      ------6------6---7-----6------6-|------0------0-------0------0---|
      ----7----------7---7------7-----|--5--------------5--------------|
      --0------------------0------0---|--------------------------------|
      --------------------------------|--------------------------------|
      
      
      
                                                                         
      
      --------5--------------5---------|--------0-----------------------|
      ----3------3---------0---0-----0-|-----------5--------------------|
      ---------------0---5-------5-2---|------6------6---7-----6------6-|
      --4---4------4---3---------------|----7----------7---7------7-----|
      ---------------------------------|--0------------------0------0---|
      ---------------------------------|--------------------------------|
      
      
      
                                                                        
      
      --------0-----------------------|--------0--------------0--------|
      -----------5--------------------|----3------3---3---3------3---3-|
      ------6------6---7-----6------6-|------0------0-------0------0---|
      ----7----------7---7------7-----|--5--------------5--------------|
      --0------------------0------0---|--------------------------------|
      --------------------------------|--------------------------------|
      
      
      
                                                                         
      
      --------5--------------5---------|--------0-----------------------|
      ----3------3---------0---0-----0-|-----------5--------------------|
      ---------------0---5-------5-2---|------6------6---7-----6------6-|
      --4---4------4---3---------------|----7----------7---7------7-----|
      ---------------------------------|--0------------------0------0---|
      ---------------------------------|--------------------------------|
      
      
      
                                                                         
      
      --------------------|------------------------|--------------------|
      --------------------|------------------------|--------------------|
      -----------7--------|--2-2-----2-2-------2---|-----------7--------|
      --5--------7--------|--2-2-----2-2-------2---|--5--------7--------|
      --5--------5--------|--0-0-----0-0-------0---|--5--------5--------|
      --3-----------------|------------------3b----|--3-----------------|
      
      
      
                                                                                     
      
      ------------------------------|--------------------|--------------------------|
      --------3-------------2-------|--------------------|--------------------------|
      ------2-----2-------2-----2---|-----------7--------|--2-2-----2-2-------2-----|
      ----2---------2---2---------2-|--5--------7--------|--2-2-----2-2-------2-----|
      --0-------------0-------------|--5--------5--------|--0-0-----0-0-------0-----|
      ------------------------------|--3-----------------|------------------3b--3-2-|
      
      
      
                                                                          
      
      -----------------------|---------------------|---------------------|
      -----------3-----------|-----------3---------|---------------------|
      -----------0-----------|-----------0---------|--7------------------|
      --2------0-0-----------|--2------0-0---------|--7------------------|
      --2--------------------|--2------------------|--5------4~-----2~---|
      --0------2-3-------3-2-|--0------2-3---------|---------------------|
      
      
      
                                                           
      
      -------------------|--------0-----------------------|
      -------------------|-----------5--------------------|
      --2----------------|------6------6---7-----6------6-|
      --2----------------|----7----------7---7------7-----|
      --0----------------|--0------------------0------0---|
      -------------------|--------------------------------|
      
      
      
                                                                         
      
      --------0--------------0--------|--------5--------------5---------|
      ----3------3---3---3------3---3-|----3------3---------0---0-----0-|
      ------0------0-------0------0---|---------------0---5-------5-2---|
      --5--------------5--------------|--4---4------4---3---------------|
      --------------------------------|---------------------------------|
      --------------------------------|---------------------------------|
      
      
      
                                                                        
      
      --------0-----------------------|--------0-----------------------|
      -----------5--------------------|-----------5--------------------|
      ------6------6---7-----6------6-|------6------6---7-----6------6-|
      ----7----------7---7------7-----|----7----------7---7------7-----|
      --0------------------0------0---|--0------------------0------0---|
      --------------------------------|--------------------------------|
      
      
      
                                                                         
      
      --------0--------------0--------|--------5--------------5---------|
      ----3------3---3---3------3---3-|----3------3---------0---0-----0-|
      ------0------0-------0------0---|---------------0---5-------5-2---|
      --5--------------5--------------|--4---4------4---3---------------|
      --------------------------------|---------------------------------|
      --------------------------------|---------------------------------|
      
      
      
                                                                                     
      
      --------0-----------------------|--------------------|------------------------|
      -----------5--------------------|--------------------|------------------------|
      ------6------6---7-----6------6-|-----------7--------|--2-2-----2-2-------2---|
      ----7----------7---7------7-----|--5--------7--------|--2-2-----2-2-------2---|
      --0------------------0------0---|--5--------5--------|--0-0-----0-0-------0---|
      --------------------------------|--3-----------------|------------------3b----|
      
      
      
                                                                               
      
      --------------------|------------------------------|--------------------|
      --------------------|--------3-------------2-------|--------------------|
      -----------7--------|------2-----2-------2-----2---|-----------7--------|
      --5--------7--------|----2---------2---2---------2-|--5--------7--------|
      --5--------5--------|--0-------------0-------------|--5--------5--------|
      --3-----------------|------------------------------|--3-----------------|
      
      
      
                                                                               
      
      --------------------------|-----------------------|---------------------|
      --------------------------|-----------3-----------|-----------3---------|
      --2-2-----2-2-------2-----|-----------0-----------|-----------0---------|
      --2-2-----2-2-------2-----|--2------0-0-----------|--2------0-0---------|
      --0-0-----0-0-------0-----|--2--------------------|--2------------------|
      ------------------3b--3-2-|--0------2-3-------3-2-|--0------2-3---------|
      
      
      
                                                                         
      
      -------------------|-----------------------|----------------------|
      -------------------|-----------------------|----------------------|
      -------------------|--4--------4------0----|--7-------7-7--7------|
      --7----------------|--4--------4------0----|--7-------7-7--7------|
      --7----------------|--2--------2-----------|--5-------5-5--5------|
      --5----------------|--------------0-2-3----|----------------------|
      
      
      
                                                                        
      
      ---------------------|-------------------|-----------------------|
      ---------------------|-------------------|-----------------------|
      --4---------7--------|--2----------------|--4--------4------0----|
      --4----7----7--------|--2----------------|--4--------4------0----|
      --2----4----5--------|--0----------------|--2--------2-----------|
      ---------------------|-------------------|--------------0-2-3----|
      
      
      
                                                                                   
      
      --------------------|------------------------------|------------------------|
      --------------------|------------------------------|--8----8--8--8----------|
      --7--------2--------|------------------------------|--7----7--7--7--7--7----|
      --7--------2--------|------------------------------|--7----7--7--7--7--7----|
      --5--------0--------|--2------2------2------2------|--5----5--5--5--5--5----|
      --------------------|--0--0-0-0--0-0-0--0-0-0--0-0-|------------------------|
      
      
      
                                                          
      
      ----------------------------|----------------------|
      --2---2--------------3------|------3----2----------|
      --2-----2--------2------2---|--------2--2----------|
      --2-------2-5------5------5-|--4--------2----------|
      --0-------------------------|-----------0----------|
      ----------------------------|----------------------|
      
      
      
                                                                                      
      
      -----------------------------|-----------0--------|----------------------------|
      ------2--------------3-------|--3--------3--------|------2--------------3------|
      --------2--------2-----2-----|--2--------2--------|--------2--------2------2---|
      ----------2-5------5-----5-4-|--4--------0--------|----------2-5------5------5-|
      --0--------------------------|--0--------0--------|--0-------------------------|
      -----------------------------|--------------------|----------------------------|
      
      
      
                                                                              
      
      ----------------------|----------------------------|-------------------|
      ------3----2----------|------2--------------3------|--3----------------|
      --------2--2----------|--------2--------2------2---|--2----------------|
      --4--------2----------|----------2-5------5------5-|--0----------------|
      -----------0----------|--0-------------------------|--0----------------|
      ----------------------|----------------------------|-------------------|
      
      
      
                                                                         
      
      --------------------|------------------------|--------------------|
      --------------------|------------------------|--------------------|
      -----------7--------|--2-2-----2-2-------2---|-----------7--------|
      --5--------7--------|--2-2-----2-2-------2---|--5--------7--------|
      --5--------5--------|--0-0-----0-0-------0---|--5--------5--------|
      --3-----------------|------------------3b----|--3-----------------|
      
      
      
                                                                                     
      
      ------------------------------|--------------------|--------------------------|
      --------3-------------2-------|--------------------|--------------------------|
      ------2-----2-------2-----2---|-----------7--------|--2-2-----2-2-------2-----|
      ----2---------2---2---------2-|--5--------7--------|--2-2-----2-2-------2-----|
      --0-------------0-------------|--5--------5--------|--0-0-----0-0-------0-----|
      ------------------------------|--3-----------------|------------------3b--3-2-|
      
      
      
                                                                          
      
      -----------------------|---------------------|---------------------|
      -----------3-----------|-----------3---------|---------------------|
      -----------0-----------|-----------0---------|--7------------------|
      --2------0-0-----------|--2------0-0---------|--7------------------|
      --2--------------------|--2------------------|--5------4~-----2~---|
      --0------2-3-------3-2-|--0------2-3---------|---------------------|
      
      
      
                                                                               
      
      --------------------------|-----------------------|---------------------|
      --------------------------|-----------3-----------|-----------3---------|
      --2-2-----2-2-------2-----|-----------0-----------|-----------0---------|
      --2-2-----2-2-------2-----|--2------0-0-----------|--2------0-0---------|
      --0-0-----0-0-------0-----|--2--------------------|--2------------------|
      ------------------3b--3-2-|--0------2-3-------3-2-|--0------2-3---------|
      
      
      
                                                                 
      
      ---------------------|--------10---------9------9---------|
      ---------------------|------------10-------10------10-----|
      --7------------------|------9--------9--------9-------9---|
      --7------------------|----7------------7----------------0-|
      --5------4~-----2~---|--0---------------------------------|
      ---------------------|------------------------------------|
      
      
      
                                                                               
      
      --10-----9--------7---------------|--10---------9--------7-------5------|
      -----7------7-------7---10--------|-----12/--10---10/--8---8---7---7----|
      -------7------7-------7-----7---0-|--------0---------0-------0-------0--|
      ----------------0-------------0---|-------------------------------------|
      ----------------------------------|-------------------------------------|
      ----------------------------------|-------------------------------------|
      
      
      
                                                                            
      
      --------------------------------|--------10---------9------9---------|
      ----7---7--------8-----7--------|------------10-------10------10-----|
      --7---7----7-------7------7-----|------9--------9-9------9-------9---|
      -------------0-0-----7------7---|----7-----------------------------0-|
      ------------------------------0-|--0---------------------------------|
      --------------------------------|------------------------------------|
      
      
      
                                                                                   
      
      --10-----9--------7---------------|--10---------9---------7--------5--------|
      -----7------7-------7---10--------|------12--------10--------8--------7-----|
      -------7------7-------7-----7---0-|----------0---------0--------0--------0--|
      ----------------0-------------0---|-----------------------------------------|
      ----------------------------------|-----------------------------------------|
      ----------------------------------|-----------------------------------------|
      
      
      
                           
      
      --3----------------||
      --3----------------||
      --2----------------||
      --0----------------||
      --0----------------||
      -------------------||
      
        Composición: Ozzy Osbourne / Zakk WyldeColaboración y revision:
        • MaragaS

        Comentarios 0

        140 .
        140 cancelar

        ¿conseguiste tocar?

        covers

        ¡Grave un vídeo tocando Time After Time y envie para nosotros!

        Ex.: http://www.youtube.com/watch?v=0IvSvIwGdwk
        ver cover de otras canciones »
        0:00 / 0:00

        Capitulos

          1 versão de guitarra dificuldad reproducciones contribuición y correción
          1 versão de guitarra eléctrica dificuldad reproducciones contribuición y correción
          1 versão de cavaco dificuldad reproducciones contribuición y correción
          1 versão de teclado dificuldad reproducciones contribuición y correción
          1 versão de Guitar Proformatodownloadscontribuición
          play/pausefechar subir/bajar velocidad
          6ª cuerda E5ª cuerda A4ª cuerda D3ª cuerda G2ª cuerda B1ª cuerda E
            acordes
            publicidad
            cerrar
            ok