Cifra Club

Ama Sofre Chora

Pabllo Vittar

Cifrado: Principal (guitarra y guitarra eléctrica)
Selo Cifra Club: esta cifra foi revisada para atender aos critérios oficiais da nossa Equipe de Qualidade.
tono: Eb
[Intro] Eb  Bb  Fm
        Eb  Bb  Fm

[Tab - Solo Intro]

Parte 1 de 3
        Eb         Bb
E|------------------------------------------|
B|--4-6-6/8----4-6-4h6----------------------|
G|-3---------3------------------------------|
D|------------------------------------------|
A|------------------------------------------|
E|------------------------------------------|

Parte 2 de 3
          Fm
E|------------------------------------------|
B|---4-6--8-9-8-9-8-9-8-9-8-----------------|
G|-3----------------------------------------|
D|------------------------------------------|
A|------------------------------------------|
E|------------------------------------------|

Parte 3 de 3
        Eb          Bb             Fm
E|------------------------4-3--4-3----------|
B|--4-6-6/8-----4-6-4h6------------6--4-----|
G|-3----------3-------------------------5---|
D|------------------------------------------|
A|------------------------------------------|
E|------------------------------------------|

[Primeira Parte] 

      Eb             Bb
Você diz que o meu amor
          Fm
Não é pra    casar
         Eb          Bb
E ainda ri desse meu    sonho
          Fm 
De ir pro    altar

       Eb          Bb
Minha fama te incomoda
        Fm
E essa bunda tão famosa
        Eb             Bb    Fm
Quem é você pra vir aqui me humilhar?

[Pré-Refrão] 

     Fm                   Bb
Sua boca já conhece o meu    batom
      Eb                     Cm
Seu cheiro não sai do meu edredom
    Fm                     Bb
Se você não quiser me assumir
                        Eb
Eu vou cantar pra todo mundo ouvir

[Refrão] 

               Eb                    Cm
Piranha também ama, piranha também chora
                Fm                   Bb
Piranha também sofre, se você vai embora
               Eb                    Cm
Piranha também ama, piranha também chora
                Fm               Bb
Piranha também sofre, se você ignora
                 Ab  B6
Piranha também chora
               Eb
Piranha também    chora

( Bb  Fm )
( Eb  Bb  Fm )

[Pré-Refrão] 

     Fm                   Bb
Sua boca já conhece o meu    batom
      Eb                     Cm
Seu cheiro não sai do meu edredom
    Fm                     Bb
Se você não quiser me assumir
                        Eb
Eu vou cantar pra todo mundo ouvir

[Refrão Final] 

               Eb                    Cm
Piranha também ama, piranha também chora
                Fm                   Bb
Piranha também sofre, se você vai embora
               Eb                    Cm
Piranha também ama, piranha também chora
                Fm               Bb
Piranha também sofre, se você ignora

               Eb                    Cm
Piranha também ama, piranha também chora
                Fm                   Bb
Piranha também sofre, se você vai embora
               Eb                    Cm
Piranha também ama, piranha também chora
                Fm               Bb
Piranha também sofre, se você ignora
                 Ab  B6
Piranha também chora
               Eb
Piranha também    chora
Otros videos de esta canción
    195 exhibiciones
      • ½ Tono
      • A
      • Bb
      • B
      • C
      • Db
      • D
      • Eb
      • E
      • F
      • F#
      • G
      • Ab
    • Agregar a la lista

    Afinação da cifra

    Afinador online

      Ops (: Contenido disponible solo en portugués.
      OK