Cifra Club

Amor de Que

Pabllo Vittar

Cifrado: Principal (guitarra y guitarra eléctrica)
Selo Cifra Club: esta cifra foi revisada para atender aos critérios oficiais da nossa Equipe de Qualidade.
tono: Bm
[Intro] G  A  F#m  Bm
        G  A  F#m  Bm  

[Riff 1]

E|------5--2-5-2-2-0---2-5-2-2--2-5-2-0-----|
B|-0-3------------------------------------3-|
G|------------------------------------------|
D|------------------------------------------|
A|------------------------------------------|
E|------------------------------------------|

E|------5--2-5-2-2-0---2-5-2-2--2-5-2-0-----|
B|-0-3------------------------------------3-|
G|------------------------------------------|
D|------------------------------------------|
A|------------------------------------------|
E|------------------------------------------|

[Primeira Parte]

                    G   
O que os olhos não veem
               A
O coração não sente
             F#m  
Eu tenho um jeito 
                  Bm
De amar bem diferente
                G  
O que você não vê 
                 A
É que as outras mentem
         F#m             
Eu tô dizendo a verdade 
         Bm
Na tua frente

[Pré-Refrão]

      G             A
Veja bem, não é maldade
           F#m  
É que tem tanto 
                   Bm
Homem bonito na cidade
      G              A
E eu tô na flor da idade
             F#m      
Melhor se arrepender 
                  Bm
Do que passar vontade

[Refrão]

      G               A
Eu espero que você entenda
            F#m            Bm
Que o meu amor é amor de quenga
         G                 A
Eu não quero que você se prenda
         F#m           Bm
No meu amor, amor de quenga

    G              
Eu sento, tu sente 
    A
Eu sento, tu sente
    F#m            
Eu sento, tu sente 
   Bm
Assim é a gente    

    G              
Eu sento, tu sente 
    A
Eu sento, tu sente
    F#m            
Eu sento, tu sente 
   Bm
Assim é a gente    
 
( G  A  F#m  Bm )

[Riff 2]

E|-----5--2-5-2-2-0--2-5-2-2--2-5-2-10-9-7-5-|
B|-0-3---------------------------------------|
G|-------------------------------------------|
D|-------------------------------------------|
A|-------------------------------------------|
E|-------------------------------------------|

[Primeira Parte]

                    G   
O que os olhos não veem
               A
O coração não sente
             F#m  
Eu tenho um jeito 
                  Bm
De amar bem diferente
                G  
O que você não vê 
                 A
É que as outras mentem
         F#m             
Eu tô dizendo a verdade 
         Bm
Na tua frente

[Pré-Refrão]

      G             A
Veja bem, não é maldade
           F#m  
É que tem tanto 
                   Bm
Homem bonito na cidade
      G              A
E eu tô na flor da idade
             F#m      
Melhor se arrepender 
                  Bm
Do que passar vontade

[Refrão]

      G               A
Eu espero que você entenda
            F#m            Bm
Que o meu amor é amor de quenga
         G                 A
Eu não quero que você se prenda
         F#m           Bm
No meu amor, amor de quenga

    G              
Eu sento, tu sente 
    A
Eu sento, tu sente
    F#m            
Eu sento, tu sente 
   Bm
Assim é a gente    

    G              
Eu sento, tu sente 
    A
Eu sento, tu sente
    F#m            
Eu sento, tu sente 
   Bm
Assim é a gente  

[Solo] G  A  F#m  Bm 
       G  A  F#m  Bm 

[Final] G  A  F#m  Bm
        G  A  F#m  Bm 

[Riff 1]

E|------5--2-5-2-2-0---2-5-2-2--2-5-2-0-----|
B|-0-3------------------------------------3-|
G|------------------------------------------|
D|------------------------------------------|
A|------------------------------------------|
E|------------------------------------------|

E|------5--2-5-2-2-0---2-5-2-2--2-5-2-0-----|
B|-0-3------------------------------------3-|
G|------------------------------------------|
D|------------------------------------------|
A|------------------------------------------|
E|------------------------------------------|

[Riff 2]

E|-----5--2-5-2-2-0--2-5-2-2--2-5-2-10-9-7-5-|
B|-0-3---------------------------------------|
G|-------------------------------------------|
D|-------------------------------------------|
A|-------------------------------------------|
E|-------------------------------------------|
Otros videos de esta canción
    4.874 exhibiciones
      • ½ Tono
      • Am
      • Bbm
      • Bm
      • Cm
      • C#m
      • Dm
      • Ebm
      • Em
      • Fm
      • F#m
      • Gm
      • G#m
    • Agregar a la lista

    Afinação da cifra

    Afinador online

      Ops (: Contenido disponible solo en portugués.
      OK