Cifra Club

Homem Nao Chora

Pablo

Tablatura: Principal (guitarra)
Tono: G
[Intro] Em7  C  G  D

[Solo Intro]

E|------------------------------------------|
B|------5-7-8-7h8p7--5h7/8~-----------------|
G|--2/4-------------------------------------|
D|------------------------------------------|
A|------------------------------------------|
E|------------------------------------------|
E|------------------------------------------|

E|------------------------------------------|
B|------------------------------------------|
G|-----5-7-9-7h9p7-5-----2-4/5-4-4-2-2h4----|
D|-2/5----------------5---------------------|
A|------------------------------------------|
E|------------------------------------------|
   
E|------------------------------------------|
B|------------------------------------------|
G|-4-4-4-2-0---0----------------------------|
D|-----------4---4~-------------------------|
A|------------------------------------------|
E|------------------------------------------|

E|------------------------------------------|
B|-7-8-10-8-7h8p7---8-7---------------------|
G|----------------9-----9-7-7h9~------------|
D|------------------------------------------|
A|------------------------------------------|
E|------------------------------------------|

[Primeira Parte]

Em7                   C
    Estou indo embora,  a mala já está lá fora
     G              D
Vou te deixar, vou te deixar

[Riff]

E|------------------------------------------|
B|-7-8-10-8-7h8p7---8-7---------------------|
G|----------------9-----9-7-7h9~------------|
D|------------------------------------------|
A|------------------------------------------|
E|------------------------------------------|

Em7                       C                                             
    Por favor não implora,  por que homem não chora 
   G                  D
E não pede perdão, e não pede perdão

[Pré-Refrão]

Am                            D
   Você foi a culpada desse amor se acabar
G                  D/F#          Em7
  Você quem destruiu a minha vida
Am                            D
   Você que machucou meu coração me fez chorar
G                  D/F#        Em7
  E me deixou num beco sem saída

[Refrão]

              C                            D
Estou indo embora agora, por favor não implora
                    Em7
Por que homem não chora
              C                            D
Estou indo embora agora,a mala já está lá fora
                    Em7
Por que homem não chora

[Solo] Em  C  G  D

E|------------------------------------------|
B|------5-7-8-7h8p7--5h7/8~-----------------|
G|--2/4-------------------------------------|
D|------------------------------------------|
A|------------------------------------------|
E|------------------------------------------|
E|------------------------------------------|

E|------------------------------------------|
B|------------------------------------------|
G|-----5-7-9-7h9p7-5-----2-4/5-4-4-2-2h4----|
D|-2/5----------------5---------------------|
A|------------------------------------------|
E|------------------------------------------|
   
E|------------------------------------------|
B|------------------------------------------|
G|-4-4-4-2-0---0----------------------------|
D|-----------4---4~-------------------------|
A|------------------------------------------|
E|------------------------------------------|

E|------------------------------------------|
B|-7-8-10-8-7h8p7---7-8-10-12-12/13---------|
G|----------------9-----------------9-9-----|
D|------------------------------------------|
A|------------------------------------------|
E|------------------------------------------|

[Pré-Refrão]

Am                            D
   Você foi a culpada desse amor se acabar
G                  D/F#          Em7
  Você quem destruiu a minha vida
Am                            D
   Você que machucou meu coração me fez chorar
G                  D/F#        Em7
  E me deixou num beco sem saída

[Refrão]

              C                            D
Estou indo embora agora, por favor não implora
                    Em7
Por que homem não chora
              C                            D
Estou indo embora agora, por favor não implora
                    Em7
Por que homem não chora
              C                            D
Estou indo embora agora,a mala já está lá fora
                    Em7
Por que homem não chora
reproducciones 779
Acordes para:

    0 comentarios

    mostrar más comentarios

    ¿Conseguiste tocar?

    18 tocaron 5 aún no

    ¡Graba un vídeo tocando Homem Nao Chora y envianoslo!

    00:00 / 00:00
    outros vídeos desta música
    repetir qualidade Automático
    Outros vídeos desta música
    00:00 / 00:00
    Automático
    OK