Cifra Club

Caen

Paiko

Cifrado: Principal (guitarra y guitarra eléctrica)
tono: D
Intro: A maj7   B   G maj7   A     A5 aug

I-
    A maj7                B B  G maj7                A A5 aug
E|---4-4------------4------2-2--2--2-----------2------X-X-----|
B|---5--5---------5---7-5--4-4--3---3--------3---5-3--2-2-----|
G|---6---6------6----------4-4--4----4------4---------2-3-----|
D|---7----7-6-7------------4-4--5-----5-4-5-----------2-2-----|
A|---X---------------------2-2--X---------------------0-0-----|
E|---X---------------------X-X--X---------------------X-X-----|

II-
    A maj7                B       G maj7               A A5 aug
E|---4-----4---4-5-4-7-5-4---------2-----2-2-3-2-5-3-2-----------|
B|----5---5----------------7-9\7----3---3---------------5-7\5-5/7|
G|-----6-6---------------------------4-4-------------------------|
D|------7-----------------------------5--------------------------|
A|---------------------------------------------------------------|
E|---------------------------------------------------------------|

A maj7                           B
Cae en tu boca con su figura me moja
G maj7                                A        A5 aug
Cae en tus labios al ver los míos me tocan, provocan
A maj7                             B
Caen tus manos, tocan las mías me calmo
G maj7                          A        A5 aug
Caen tus ojos y su mirada me enfoca, provoca...

C#m                             D
Clavada está tu imagen muy dentro de mí
C#m                              D
En todo momento te veo y te siento sin fin,
               A     A5 aug
Te siento sin fin...

A maj7                          B
Cae tu pelo, a la distancia lo veo
G maj7                              A          A5 aug
Cae tu cuerpo, con su fragancia lo siento, lo siento
A maj7                         B
Caen tus cejas, su desafío me tienta
G maj7                           A         A5 aug
Caen tus piernas y su veneno me quema, me quema...

C#m                             D
Clavada está tu imagen muy dentro de mí
C#m                              D
En todo momento te veo y te siento sin fin,
               A     A5 aug
Te siento sin fin...


Intro II - Inter con acordes de intro


C#m                             D
Clavada está tu imagen muy dentro de mí
C#m                              D
En todo momento te veo y te siento
C#m                           D
Veo tus ojos posarse muy dentro de mí
C#m                                  D
Y en realidad, la verdad es que no estás aquí
           A     A5 aug      A maj7
No estás aquí...
00:00 / 00:00
Otros videos de esta canción
Repetir
Otros videos de esta canción
Composición de Paiko
3 vistas
    • ½ Tono
    • A
    • Bb
    • B
    • C
    • Db
    • D
    • Eb
    • E
    • F
    • F#
    • G
    • Ab
  • Agregar a la lista

    0 comentarios

    Ver todos los comentarios

    ¿Lograste tocar?

    0 Tocaron 0 Aún no

    ¡Graba un video tocando Caen y envíanoslo!

    00:00 / 00:00
    OK