Cifra Club

La sonrisa de mamá

Palito Ortega

Cifrado: Principal (guitarra y guitarra eléctrica)
tono: C
E|-------------------------------------------------|
B|--1-0-------1---0----3-1--0--3-1--0------1-0--------|
G|------2-------2---------------------2---------|
D|---------2--------2--------------------------------|
A|-------------------------------------------------|
E|-------------------------------------------------|

E|---------------------0------------------------------|
B|------1---0---0--1-3---3--1--0----------------------|
G|--2-----2-----------------------2-------------------|
D|----2-------2---------------------------------------|
A|----------------------------------------------------|
E|----------------------------------------------------|

E|----------------------------------------------------|
B|--1-0-------1---0----3-1--0--3-1--0------1-0--------|
G|------2-------2---------------------2---------------|
D|---------2--------2---------------------------------|
A|----------------------------------------------------|
E|----------------------------------------------------|

E|---------------------0-----------------------------|
B|------1---0---0--1-3---3--1--0---------------------|
G|--2-----2-----------------------2------------------|
D|----2-------2--------------------------------------|
A|---------------------------------------------------|
E|---------------------------------------------------|

E|------0-0--0-0--0-0----0--0------------0----------------|
B|--1-3-----------------------3--3-2--3----3--3-1--1-1----|
G|--------------------------------------------------------|
D|---------------------3----------------------------------|
A|--------------------------------------------------------|
E|--------------------------------------------------------|

E|---------0---------------------------------------|
B|--1-1--3---0----1-3------------------------------|
G|-------------------------------------------------|
D|-------------------------------------------------|
A|-------------------------------------------------|
E|-------------------------------------------------|

E|------0-0--0-0--0-0----0--0------------0----------------|
B|--1-3-----------------------3--3-2--3----3--3-1--1-1----|
G|--------------------------------------------------------|
D|---------------------3----------------------------------|
A|--------------------------------------------------------|
E|--------------------------------------------------------|

E|---------0---------------------------------------|
B|--1-1--3---0----1-3------------------------------|
G|-------------------------------------------------|
D|-------------------------------------------------|
A|-------------------------------------------------|
E|-------------------------------------------------|

E|-------------------------------------------------|
B|--1-0-------1---0----3-1--0--3-1--0------1-0--------|
G|------2-------2---------------------2---------|
D|---------2--------2--------------------------------|
A|-------------------------------------------------|
E|-------------------------------------------------|

E|---------------------0------------------------------|
B|------1---0---0--1-3---3--1--0----------------------|
G|--2-----2-----------------------2-------------------|
D|----2-------2---------------------------------------|
A|----------------------------------------------------|
E|----------------------------------------------------|

E|----------------------------------------------------|
B|--1-0-------1---0----3-1--0--3-1--0------1-0--------|
G|------2-------2---------------------2---------------|
D|---------2--------2---------------------------------|
A|----------------------------------------------------|
E|----------------------------------------------------|

E|---------------------0-----------------------------|
B|------1---0---0--1-3---3--1--0---------------------|
G|--2-----2-----------------------2------------------|
D|----2-------2--------------------------------------|
A|---------------------------------------------------|
E|---------------------------------------------------|

E|------0-0--0-0--0-0----0--0------------0----------------|
B|--1-3-----------------------3--3-2--3----3--3-1--1-1----|
G|--------------------------------------------------------|
D|---------------------3----------------------------------|
A|--------------------------------------------------------|
E|--------------------------------------------------------|

E|---------0---------------------------------------|
B|--1-1--3---0----1-3------------------------------|
G|-------------------------------------------------|
D|-------------------------------------------------|
A|-------------------------------------------------|
E|-------------------------------------------------|

E|------0-0--0-0--0-0----0--0------------0----------------|
B|--1-3-----------------------3--3-2--3----3--3-1--1-1----|
G|--------------------------------------------------------|
D|---------------------3----------------------------------|
A|--------------------------------------------------------|
E|--------------------------------------------------------|

E|---------0---------------------------------------|
B|--1-1--3---0----1-3------------------------------|
G|-------------------------------------------------|
D|-------------------------------------------------|
A|-------------------------------------------------|
E|-------------------------------------------------|
00:00 / 00:00
Otros videos de esta canción
Repetir
Otros videos de esta canción
Composición de Palito Ortega
34 vistas
    • ½ Tono
    • A
    • Bb
    • B
    • C
    • Db
    • D
    • Eb
    • E
    • F
    • F#
    • G
    • Ab
  • Agregar a la lista

    0 comentarios

    Ver todos los comentarios

    ¿Lograste tocar?

    0 Tocaron 0 Aún no

    ¡Graba un video tocando La sonrisa de mamá y envíanoslo!

    00:00 / 00:00
    OK