Cifra Club

Yo tengo fé

Palito Ortega

Cifrado: Principal (guitarra y guitarra eléctrica)
tono: D
INTRO: (D)

   D                                           G         A             D
E|-2-2-0-------0-2-0---5---2-2-0-------0-2-0-------3-3-2-0---0-2-3-2-0-5--|
B|-------3---3-------3-----------3---3-------3-0------------------------|
G|----------------------------------------------------------------------|
D|----------------------------------------------------------------------|
A|----------------------------------------------------------------------|
E|----------------------------------------------------------------------|

              A                D
E|---0-2-0---5-5---3-3-2-2-0-0----|
B|-3-------3-------------------3--|
G|--------------------------------|
D|--------------------------------|
A|--------------------------------|
E|--------------------------------|


D
Yo tengo fe
que todo cambiara
que triunfara
                 G
por siempre el amor
         A
yo tengo fe
                 D
que siempre brillara
                  A
la luz de la esperanza
                 D
no se apagara jamas

yo tengo fe
yo creo en el amor
yo tengo fe
                  G
también mucha ilusion
           A
porque yo se
               D
será una realidad
                 A
del mundo de justicia
                     D
que ya empieza a despertar

yo tengo fe
porque yo creo en dios
yo tengo fe
             G
será todo mejor
         A               D
se callara el odio y el dolor
               A
la gente nuevamente
                  D
hablara de su ilusión

yo tengo fe
los hombres cantaran
                           G
una canción de amor universal
          A
yo tengo fe
               D
será una realidad
                A
el mundo de justicia
                       D
que ya empieza a despertar
00:00 / 00:00
Otros videos de esta canción
Repetir
Otros videos de esta canción
Composición de Palito Ortega
25 vistas
    • ½ Tono
    • A
    • Bb
    • B
    • C
    • Db
    • D
    • Eb
    • E
    • F
    • F#
    • G
    • Ab
  • Agregar a la lista

    0 comentarios

    Ver todos los comentarios

    ¿Lograste tocar?

    0 Tocaron 0 Aún no

    ¡Graba un video tocando Yo tengo fé y envíanoslo!

    00:00 / 00:00
    OK