Cifra Club

No, no, no

Pambo

Cifrado: Principal (guitarra y guitarra eléctrica)
tono: D
e|4h5-5-5-5-4-2-0--|-----------------|-----------------------
B|----------------2| 0h2-2-2-2-0---0h2|2-2-2h7-5-----4-2 -----
G|-----------------|------------2----|----------4h6-----4h7-4|
D|-----------------|-----------------|-----------------------|
A|-----------------|-----------------|-----------------------|
E|-----------------|-----------------|-----------------------|


pero con este suena mucho mejor)



D*                 A
No no no quiero saber
                  F#m                      E
todo lo que hice ayer creo que perdi la cabeza
D*                      A                        F#m
eso de beber tanto alcohol me hace perder direccion
                    E
a veces uno ya no piensa


D*                 A
No no no quiero saber
                 F#m                           E
todo lo que dije ayer creo que se me solto la lengua
D*                      A                       F#m
eso de beber tanto alcohol cambia toda persepcion
                  E
disminuye mi conciencia


Em           A          Em            A
voy dando vueltas en mi cama sin dormir
      Em         A         F#m           E
ay estoy confundiendo la velada, me excedi


D*                A
no no no quiero saber
                   F#m                         E
todo lo que hice ayer creo que se me paso la fiesta
D*                      A                F#m
eso de beber tanto alcohol elimina mi razon
                  E
ya no mido por intensa


e|4h5-5-5-5-4-2-0--|-----------------|-----------------------
B|----------------2| 0h2-2-2-2-0---0h2|2-2-2-2-0-----4-2 -----
G|-----------------|------------2----|----------4h6-----4h7--|
D|-----------------|-----------------|-----------------------|
A|-----------------|-----------------|-----------------------|
E|-----------------|-----------------|-----------------------|



Em           A          Em            A
voy dando vueltas en mi cama sin dormir
      Em         A         F#m           E
ay estoy confundiendo la velada, me excedi



(palmas xD)
tututurututruru...

no quiero saber se me paso la fiesta


(un solo rasgueo)
D*              A         F#m          E
no no tanto alcohol mi razon pero cuanta inconciencia


(aca te alocas de nuevo xD)
D*                 A
no no no quiero saber
                   F#m                     E
todo lo que hice ayer creo que perdi la cabeza
D*                     A                         F#m
eso de beber tanto alcohol me hace perder direccion
                    E
a veces uno ya no piensa

uhuhuuhuhuhuhuhuuhu.... =D




weno espero que les sirva .. si hay algo que corregir... corrijan
esta pagina tiene que crecer!! x)
agradecimientos... "niñas mal" por hacerme
descubrir esta buena cancion xD
y a la guitarra de mi primo xD =)
Compositor não encontrado.
    • ½ Tono
    • A
    • Bb
    • B
    • C
    • Db
    • D
    • Eb
    • E
    • F
    • F#
    • G
    • Ab
  • Agregar a la lista

    0 comentarios

    Ver todos los comentarios

    ¿Lograste tocar?

    0 Tocaron 0 Aún no

    ¡Graba un video tocando No, no, no y envíanoslo!

    00:00 / 00:00
    Outros vídeos desta música
    Repetir Calidad Automático
    Outros vídeos desta música
    00:00 / 00:00
    Automático
    OK