Cifra Club

La Carencia

Panteón Rococó

Cifrado: Principal (guitarra y guitarra eléctrica)
Selo Cifra Club: esta cifra foi revisada para atender aos critérios oficiais da nossa Equipe de Qualidade.
tono: Am
INTRO:   Am  -  E7



Tumbao del piano pero con guitarra

guitarra  1
E|------5--5--5--5--5--5--5--5-----7--7--7--7--7--7--7--7-----5--5--5--5--5--5--5--5-----7--7--7--7----7--7--7----|
B|-----5--5--5--5--5--5--5--5----9--9--9--9--9--9--9--9-----5--5--5--5--5--5--5--5-----9--9--9--9--9--9--9--9-----|
G|----5--5--5--5--5--5---5--5---9--9--9--9--9--9--9--9-----5--5--5--5--5--5--5--5-----9--9--9--9--9--9--9--9------|
D|----------------------------------------------------------------------------------------------------------------|
A|----------------------------------------------------------------------------------------------------------------|
E|----------------------------------------------------------------------------------------------------------------|
En esta esta parte las cuerdas se tocan de arriba a abajo y rapido al ritmo de la musica.



guitarra 2
E|---------------------------------------------------------------------------------------------------------------|
B|---10--13--10--10--13--10--10--13--10--10--13----12--15--12--12--15--12--12--15--12--12--15--------------------|
G|---------------------------------------------------------------------------------------------------------------|
D|---------------------------------------------------------------------------------------------------------------|
A|---------------------------------------------------------------------------------------------------------------|
E|---------------------------------------------------------------------------------------------------------------|
esta guitarra hace el sonido del piano ritmico.


E|-------------------------------------------------------------------------------------------------------------|
B|--------------------------------------------------------------------------------------------|
G|-----------------------------------------------------------------------------------------------------------|
D|---7--10--7--7--10--7--7--10--7--7--10-----9--12--9--9--12--9--9--12--9--9--12------------------------|
A|-------------------------------------------------------------------------------------------------------------|
E|-------------------------------------------------------------------------------------------------------------|
Esta guitarar hace lo mismo que la anterior.


BG UEN A S TROMPETAS:


E|-------5-----5-----5--4--7-------7------7-------7--8--5--------5------5------5--4--7-----12--12-----12--12------12--12---11-|
B|----5-----5-----5-------------9-------9------9---------------5------5------5------------------------------------------------|
G|--5-----5-----5------------9-------9------9---------------5------5------5--------------13----------13-----------13----------|
D|--------------------------------------------------------------------------------------------------------------|
A|--------------------------------------------------------------------------------------------------------------|
E|--------------------------------------------------------------------------------------------------------------|



E|--------------------------------------------------------------------------------------------------------------|
B|--13--13--12--12--10----13--13--12--12--15---15--15---13--13--12----12--13--12--13--10------------------------|
G|--------------------------------------------------------------------------------------------------------------|
D|--------------------------------------------------------------------------------------------------------------|
A|--------------------------------------------------------------------------------------------------------------|
E|--------------------------------------------------------------------------------------------------------------|



E|------------------------------------------------------15*15*15*15*15*15*--16----------------------------------|
B|-----13--13--12--12--10--13--13--12--12--15-------------------------------------------------------------------|
G|--------------------------------------------------------------------------------------------------------------|
D|--------------------------------------------------------------------------------------------------------------|
A|--------------------------------------------------------------------------------------------------------------|
E|--------------------------------------------------------------------------------------------------------------|
el   *  significa que esa parte se tremolea.


en la siguiente parte empieza la cancion y se usan los acordes de Am  y    E7

            Am                 E7
E|---------0-----------------0--------------|
B|--------1-----------------3--------------|
G|--------2-----------------1--------------|
D|--------2-----------------0--------------|
A|--------0-----------------2--------------|
E|--------0-----------------0--------------|



        Am        E7
E|------3---------4-----------------------------------------------------------------------------------------------|
B|-----3---------5------------------------------------------------------------------------------------------------|
G|-----3---------4-------------------------------------------------------------------------------------------------|
D|--------------------------------------------------------------------------------------------------------------|
A|--------------------------------------------------------------------------------------------------------------|
E|--------------------------------------------------------------------------------------------------------------|
Estos dos acordes sirven para darle un ritmo mas a ska si la tocas con guitarra acustica, simplemente
se tocan de arriba hacia abajo.



   Am                   E7
Por la mañana yo me levanto
                    Am
no me dan ganas de ir a trabajar
                    E7
subo a la combi voy observando
                     Am
que toá la gente comienza a pasar
                     E7
por la avenida va circulando
                   Am
al alma obrera de mi ciudad
                     E7
gente que siempre esta trabajando
                     Am
y su descanso lo ocupa pá soñar.

 Am  y E7 

En esta parte van las trompetas.

Am                         E7
Despues de ocho horas de andar lavorando
                         Am
desesperanza se siente en el hogar
                       E7
pues con la friega que hay a diario
                          Dm
ya no alcanza pá progresar
                            Am
Y asi han pasado descenas de años
 Dm                   Am
Pues en un mundo globalizado

La gente pobre no tiene lugar

            tromopetas

Am
Y la carencia arriba
Y los salarios abajo
E7
Con lo que gano en esta empresa no me alcanza pá tragar
Am
Y la carencia arriba
Y los salarios abajo
E7
y yo le digo a mi teresa no me voy a resignar
Am
y la carencia arriba
Y los salarios abajo
E7
Con lo que gano es esta empresa no me alcanza pá tragar
Am
Y la carencia arriba
Y los salarios abajo
E7
y yo le digo a mi teresa vente vamos a bailrar porque

    E7       Am
ahi viene Antidoping
ahi viene El salario
ahi viene Santa sabina
ahi viene La maldita
ahi viene El trabajo
ahi viene El salón
y ahi vien Quien
  E7                  Am
ahi viene elchile que te mantiene
y en la cama te entretiene y en la boca lo retiene
luego trae atu pareja y soplale una oreja
pa que mueva la cintura y le de la calentura y despues
de la sobada ella ya no quiera nada y te diga que no...que no
que no...que no...que no....que no...

PIANO    Y ACORDES  Am   y   E7

A  GENTE     -      A  JOVEN ( la joden )

TROMPETAS AL FINAL Y TERE NAS CON LOS E SMOS ACORDES
DE TODA A  CANCION.



¡¡¡¡¡¡¡¡¡¡¡¡ GRACIAS ¡¡¡¡¡¡¡¡¡¡¡¡


 * B  TIENEN ALGUNA DUDA, COMENTARIO O QUIED N HABA R DE MUBCA  ESCRIBANME
A E  CORD O O B  TIENEN MESSENGER PODEMOS CHATEAR UN RATO.
SOY DE CD. JUAD Z CHIH. MEXICO
Otros videos de esta canción
    2.837 exhibiciones
      • ½ Tono
      • Am
      • Bbm
      • Bm
      • Cm
      • C#m
      • Dm
      • Ebm
      • Em
      • Fm
      • F#m
      • Gm
      • G#m
    • Agregar a la lista

    Afinação da cifra

    Afinador online

      Ops (: Contenido disponible solo en portugués.
      OK