Cifra Club

Hollywood Whore

Papa Roach

Cifrado: Principal (guitarra y guitarra eléctrica)
tono: D
(intro)
E|---------5---|----------5-|---------5--|-----5----|---5---------|
B|----6--------|-----6------|-----6------|----6--6--|--6--6-------|
G|--7---7------|---6---6----|---5---5----|---4------|-3-----------|
D|-------------|------------|------------|----------|-------------|
A|-------------|------------|------------|----------|-------------|
E|-------------|------------|------------|----------|-------------|

(guitarra 1)
E|--------------------------------------------------------|
B|--------------------------------------------------------|
G|--------------------------------------------------------|
D|----0---0------11---11----------------------------------|
A|----0---0------11---11----------------------------------|
E|----0---0------11---11----------------------------------|

(guitarra 2)
E|--------------------------------------------------------|
B|--------------------------------------------------------|
G|--7-7-7-7-7-7-7-9-10-9-7-9-7-9-10-----------------------|
D|--------------------------------------------------------|
A|--------------------------------------------------------|
E|--------------------------------------------------------|

E|--------------------------------------------------------|
B|--------------------------------------------------------|
G|--6-6-6-6-6-6-6-7-9-7-9-7-10----------------------------|
D|--------------------------------------------------------|
A|--------------------------------------------------------|
E|--------------------------------------------------------|

E|--------------------------------------------------------|
B|--------------------------------------------------------|
G|--7-7-7-7-7-7-7-9-10-9-7-9-7-9-10-----------------------|
D|--------------------------------------------------------|
A|--------------------------------------------------------|
E|--------------------------------------------------------|

E|--------------------------------------------------------|
B|--------------------------------------------------------|
G|--6-6-6-6-6-6-6-7-9-7-9-7-10----------------------------|
D|--------------------------------------------------------|
A|--------------------------------------------------------|
E|--------------------------------------------------------|

(verso)
E|--------------------------------------------------------|
B|--------------------------------------------------------|
G|--------------------------------------------------------|  (4x)
D|----0---0------11---11----------------------------------|
A|----0---0------11---11----------------------------------|
E|----0---0------11---11----------------------------------|

E|--------------------------------------------------------|
B|--------------------------------------------------------|
G|--------------------------------------------------------|
D|--3---3-----7^------3------5^---------------------------|
A|--3---3-------------3-----------------------------------|
E|--1---1-------------1-----------------------------------|

(refrão)
E|--------------------------------------------------------------------------------------|
B|--------------------------------------------------------------------------------------|
G|--------------------------------------------------------------------------------------|  (2x)
D|-0-0-0-0-0-0-0-7-7-7-7-7-7-7-8-8-8-8-8-8-8-8-5-5-5-5-5-5-5-5--------------------------|
A|-0-0-0-0-0-0-0-7-7-7-7-7-7-7-8-8-8-8-8-8-8-8-5-5-5-5-5-5-5-5--------------------------|
E|-0-0-0-0-0-0-0-7-7-7-7-7-7-7-8-8-8-8-8-8-8-8-5-5-5-5-5-5-5-5--------------------------|

(guitarra 1)
E|--------------------------------------------------------|
B|--------------------------------------------------------|
G|--------------------------------------------------------|
D|----0---0------11---11----------------------------------|
A|----0---0------11---11----------------------------------|
E|----0---0------11---11----------------------------------|

(guitarra 2)
E|--------------------------------------------------------|
B|--------------------------------------------------------|
G|--7-7-7-7-7-7-7-9-10-9-7-9-7-9-10-----------------------|
D|--------------------------------------------------------|
A|--------------------------------------------------------|
E|--------------------------------------------------------|

E|--------------------------------------------------------|
B|--------------------------------------------------------|
G|--6-6-6-6-6-6-6-7-9-7-9-7-10----------------------------|
D|--------------------------------------------------------|
A|--------------------------------------------------------|
E|--------------------------------------------------------|

E|--------------------------------------------------------|
B|--------------------------------------------------------|
G|--7-7-7-7-7-7-7-9-10-9-7-9-7-9-10-----------------------|
D|--------------------------------------------------------|
A|--------------------------------------------------------|
E|--------------------------------------------------------|

E|--------------------------------------------------------|
B|--------------------------------------------------------|
G|--6-6-6-6-6-6-6-7-9-7-9-7-10----------------------------|
D|--------------------------------------------------------|
A|--------------------------------------------------------|
E|--------------------------------------------------------|

(verso)
E|--------------------------------------------------------|
B|--------------------------------------------------------|
G|--------------------------------------------------------|  (4x)
D|----0---0------11---11----------------------------------|
A|----0---0------11---11----------------------------------|
E|----0---0------11---11----------------------------------|

E|--------------------------------------------------------|
B|--------------------------------------------------------|
G|--------------------------------------------------------|
D|--3---3-----7^------3------5^---------------------------|
A|--3---3-------------3-----------------------------------|
E|--1---1-------------1-----------------------------------|

(refrão)
E|--------------------------------------------------------------------------------------|
B|--------------------------------------------------------------------------------------|
G|--------------------------------------------------------------------------------------|  (2x)
D|-0-0-0-0-0-0-0-7-7-7-7-7-7-7-8-8-8-8-8-8-8-8-5-5-5-5-5-5-5-5--------------------------|
A|-0-0-0-0-0-0-0-7-7-7-7-7-7-7-8-8-8-8-8-8-8-8-5-5-5-5-5-5-5-5--------------------------|
E|-0-0-0-0-0-0-0-7-7-7-7-7-7-7-8-8-8-8-8-8-8-8-5-5-5-5-5-5-5-5--------------------------|

E|--------------------------------------------------------------------------------------|
B|--------------------------------------------------------------------------------------|
G|--------------------------------------------------------------------------------------|  (2x)
D|-0-0-0-0-0-0-0-7-7-7-7-7-7-7-8-8-8-8-8-8-8-8-5-5-5-5-5-5-5-5--------------------------|
A|-0-0-0-0-0-0-0-7-7-7-7-7-7-7-8-8-8-8-8-8-8-8-5-5-5-5-5-5-5-5--------------------------|
E|-0-0-0-0-0-0-0-7-7-7-7-7-7-7-8-8-8-8-8-8-8-8-5-5-5-5-5-5-5-5--------------------------|

E|---------5---|----------3-|---------3--|-----1----|---0---------|
B|----6--------|-----4------|-----5------|----3--3--|--2--2-------|
G|--7---7------|---5---5----|---5---5----|---3------|-2-----------|  (2x)
D|-------------|------------|------------|----------|-------------|
A|-------------|------------|------------|----------|-------------|
E|-------------|------------|------------|----------|-------------|
                                                  (2x)        (2x)
E|---------5-----|-------3----|-------3----|-----1----|---0-------|
B|----6-----6----|---4----4---|---5----5---|--3---3---|--2--2-----|
G|--7---7----7---|-5---5---5--|-5---5---5--|-3--------|-2---------|
D|---------------|------------|------------|----------|-----------|
A|---------------|------------|------------|----------|-----------|
E|---------------|------------|------------|----------|-----------|

E|--------------------------------------------------------------------------------------|
B|--------------------------------------------------------------------------------------|
G|--------------------------------------------------------------------------------------|  (3x)
D|-0-0-0-0-0-0-0-7-7-7-7-7-7-7-8-8-8-8-8-8-8-8-5-5-5-5-5-5-5-5--------------------------|
A|-0-0-0-0-0-0-0-7-7-7-7-7-7-7-8-8-8-8-8-8-8-8-5-5-5-5-5-5-5-5--------------------------|
E|-0-0-0-0-0-0-0-7-7-7-7-7-7-7-8-8-8-8-8-8-8-8-5-5-5-5-5-5-5-5--------------------------|

(guitarra 1)
E|--------------------------------------------------------|
B|--------------------------------------------------------|
G|--------------------------------------------------------|
D|----0---0------11---11----------------------------------|
A|----0---0------11---11----------------------------------|
E|----0---0------11---11----------------------------------|
(guitarra 2)
E|--------------------------------------------------------|
B|--------------------------------------------------------|
G|--7-7-7-7-7-7-7-9-10-9-7-9-7-9-10-----------------------|
D|--------------------------------------------------------|
A|--------------------------------------------------------|
E|--------------------------------------------------------|

E|--------------------------------------------------------|
B|--------------------------------------------------------|
G|--6-6-6-6-6-6-6-7-9-7-9-7-10----------------------------|
D|--------------------------------------------------------|
A|--------------------------------------------------------|
E|--------------------------------------------------------|

E|--------------------------------------------------------|
B|--------------------------------------------------------|
G|--7-7-7-7-7-7-7-9-10-9-7-9-7-9-10-----------------------|
D|--------------------------------------------------------|
A|--------------------------------------------------------|
E|--------------------------------------------------------|

E|--------------------------------------------------------|
B|--------------------------------------------------------|
G|--6-6-6-6-6-6-6-7-9-7-9-7-10----------------------------|
D|--------------------------------------------------------|
A|--------------------------------------------------------|
E|--------------------------------------------------------|
00:00 / 00:00
Otros videos de esta canción
Repetir
Otros videos de esta canción
Composición de Jerry Horton / Tobin Esperance
Colaboración y revisión:
  • Danilo Holanda
  • Lucas Parcianelo
1.386 exhibiciones
    • ½ Tono
    • A
    • Bb
    • B
    • C
    • Db
    • D
    • Eb
    • E
    • F
    • F#
    • G
    • Ab
  • Agregar a la lista
    00:00 / 00:00
    OK