Cifra Club

Playing God

Paramore

Cifrado: Principal (guitarra y guitarra eléctrica)
tono: F#
(afinação C#)

(intro)

 (guitar 1)  
       (2x)                            (2x)
|---------------------------------|------------------------------------------------|
|---------------------------------|------------------------------------------------|
|----9-------9-------9-------10---|------12----------12----------12----------12----|
|--7---7---7---7---7---7---7----7-|---10----10----10----10----10----10----10----10-|
|8-------8-------8-------8--------|12----------12----------12----------12----------|
|---------------------------------|------------------------------------------------|

(guitar 2)
       (2x)                            (1x)
|---------------------------------|---------------------------------------------------------------|
|---------------------------------|---------------------------------------------------------------|
|----5-------5-------5-------5----|----5-------5-------5-------5-------5-------5-------5-------5--|
|--3---3---3---3---3---3---2---2--|--7---7---7---7---7---7---7---7---7---7---7---7---7---7---7---7|
|5-------5-------5-------3--------|8-------8-------8-------8-------8-------8-------7-------7------|
|---------------------------------|---------------------------------------------------------------|

(verse - same as intro 2x)

|--------------------------------|
|--------------------------------|
|-3-3-3-3-3-3-3-3-5-5-5-5-5------|
|-3-3-3-3-3-3-3-3-5-5-5-5-5------|
|-1-1-1-1-1-1-1-1-3-3-3-3-3------|
|--------------------------------|
  x x x x x x x x x x

(chorus)
|----------------------------------------------------------------------------------------|
|----------------------------------------------------------------------------------------|
|----------------------------------------------------------------------------------------|
|-3-3--3-3-3--3-3-3--3-3-3--3-0-0--0-0-0--0-0-0--0-0-0--0-8-8--8-8-8--8-10-10--10-10-10--|
|-3-3--3-3-3--3-3-3--3-3-3--3-0-0--0-0-0--0-0-0--0-0-0--0-8-8--8-8-8--8-10-10--10-10-10--|
|-3-3--3-3-3--3-3-3--3-3-3--3-0-0--0-0-0--0-0-0--0-0-0--0-8-8--8-8-8--8-10-10--10-10-10--|

|---------------------------------------------------------------------------|
|---------------------------------------------------------------------------|
|---------------------------------------------------------------------------|
|-10-7-7--7-7-7--7-8-8--8-8-8--8-8-8--8-8-8--8-10---------------------------|
|-10-7-7--7-7-7--7-8-8--8-8-8--8-8-8--8-8-8--8-10---------------------------|
|-10-7-7--7-7-7--7-8-8--8-8-8--8-8-8--8-8-8--8-10---------------------------|

(intro)
(verse 2x)

(chorus)
|----------------------------------------------------------------------------------------|
|----------------------------------------------------------------------------------------|
|----------------------------------------------------------------------------------------|
|-3-3--3-3-3--3-3-3--3-3-3--3-0-0--0-0-0--0-0-0--0-0-0--0-8-8--8-8-8--8-10-10--10-10-10--|
|-3-3--3-3-3--3-3-3--3-3-3--3-0-0--0-0-0--0-0-0--0-0-0--0-8-8--8-8-8--8-10-10--10-10-10--|
|-3-3--3-3-3--3-3-3--3-3-3--3-0-0--0-0-0--0-0-0--0-0-0--0-8-8--8-8-8--8-10-10--10-10-10--|

|---------------------------------------------------------------------------|
|---------------------------------------------------------------------------|
|---------------------------------------------------------------------------|
|-10-7-7--7-7-7--7-8-8--8-8-8--8-8-8--8-8-8--8-10-10-10-10-10-10-10---------|
|-10-7-7--7-7-7--7-8-8--8-8-8--8-8-8--8-8-8--8-10-10-10-10-10-10-10---------|
|-10-7-7--7-7-7--7-8-8--8-8-8--8-8-8--8-8-8--8-10-10-10-10-10-10-10---------|

(solo)
(guitar 1)
|---------------------------------------------------------------------------|
|-6-6-6-6-6-6-6-6-6-6-6-6-6-6-6-6-6-6-6-6-6-6-6-6-8-8-8-1010101010----------|
|-7-7-7-7-7-7-7-7-9-9-9-9-9-9-9-9-10101010101010101010101010101010----------|
|---------------------------------------------------------------------------|
|---------------------------------------------------------------------------|
|---------------------------------------------------------------------------|

( guitar 2)
|---------------------------------------------------------------------------|
|---------------------------------------------------------------------------|
|---------------------------------------------------------------------------|
|----------------------------------7-7-7-7-7-7-7-7-7------------------------|
|-8-8-8-8-8-8-8-8-1010101010101010-5-5-5-5-5-5-5-5-5-7-7-7-7-7-7-7-7--------|
|-8-8-8-8-8-8-8-8-1010101010101010-------------------7-7-7-7-7-7-7-7--------|

(guitar 1)
|---------------------------------------------------------------------------|
|-6-6-6-6-6-6-6-6-6-6-6-6-6-6-6-6------------------6-6-6--6-6-6-6-6---------|
|-7-7-7-7-7-7-7-7-9-9-9-9-9-9-9-9-1010101010101010-101010-9-9-9-9-9---------|
|---------------------------------1010101010101010--------------------------|
|---------------------------------------------------------------------------|
|---------------------------------------------------------------------------|

(guitar 2)
|---------------------------------------------------------------------------|
|---------------------------------------------------------------------------|
|---------------------------------------------------------------------------|
|----------------------------------7-7-7-7-7-7-7-7-7------------------------|
|-8-8-8-8-8-8-8-8-1010101010101010-5-5-5-5-5-5-5-5-5-7-7-7-7-7-7-7-7--------|
|-8-8-8-8-8-8-8-8-1010101010101010-------------------7-7-7-7-7-7-7-7--------|

(guitar 1)
|---------------------------------------------------------------------------|
|-6-6-6-6-6-6-6-6-6-6-6-6-6-6-6-6-6-6-6-6-6-6-6-6-8-8-8-8-8-8-8-------------|
|-7-7-7-7-7-7-7-7-9-9-9-9-9-9-9-9-101010101010101010101010101010------------|
|---------------------------------------------------------------------------|
|---------------------------------------------------------------------------|
|---------------------------------------------------------------------------|

(guitar 2)
|---------------------------------------------------------------------------|
|---------------------------------------------------------------------------|
|---------------------------------------------------------------------------|
|----------------------------------7-7-7-7-7-7-7-7-7------------------------|
|-8-8-8-8-8-8-8-8-1010101010101010-5-5-5-5-5-5-5-5-5-7-7-7-7-7-7-7-7--------|
|-8-8-8-8-8-8-8-8-1010101010101010-------------------7-7-7-7-7-7-7-7--------|

(guitar 1)
|-----------------------------------------------------------------------------|
|-131313131313-1111-101010101010-131313131313-1515-101010101010-8-8-8-8---6~--|
|-101010101010-1010-101010101010-101010101010-1010-101010101010-10101010--5~--|
|-------------------------------------------------------------------------3~--|
|-----------------------------------------------------------------------------|
|-----------------------------------------------------------------------------|

(guitar 2)
|-----------------------------------------------------------------------------|
|-----------------------------------------------------------------------------|
|-----------------------------------------------------------------------------|
|------------------------------------7-7-7-7-7-7-7-7-7--1010101010101010--3~--|
|-8-8-8-8-8-8-8-8--1010101010101010--5-5-5-5-5-5-5-5-5--8-8-8-8-8-8-8-8---3~--|
|-8-8-8-8-8-8-8-8--1010101010101010---------------------------------------3~--|

(chorus 2x)

| /  slide up
| \  slide down
| h  hammer-on
| p  pull-off
| +  harmonic
| x  mute note
00:00 / 00:00
Otros videos de esta canción
Repetir
Otros videos de esta canción
Composición de Hayley Williams / Josh Farro / Taylor York
Colaboración y revisión:
  • Magali Silva
4.450 vistas
    • ½ Tono
    • A
    • Bb
    • B
    • C
    • Db
    • D
    • Eb
    • E
    • F
    • F#
    • G
    • Ab
  • Agregar a la lista

    0 comentarios

    Ver todos los comentarios
    00:00 / 00:00
    OK