Enviar cifraEntrar

Still Into You

Paramore

Acordes: Principal
reproducciones 10.602
Tono: F
Intro/Verso 2x:

E|---------------------------------------------------------------------------------------|
B|---------------------------------------------------------------------------------------|
G|---------------------------------------------------------------------------------------|
D|------------------2-----------------2--------------------2---------------------2-------|
A|------------0--3--------------0--3----3-----------0--3------------------0--3-----3-----|
D|----1----1------------1----1--------------1----1-----------------1----1----------------|


E|---------------------------------------------------------------------------------------|
B|---------------------------------------------------------------------------------------|
G|---------------------------------------------------------------------------------------|
D|-------------------2------------------2----------------------2-------------------2-----|
A|----5----5---0--3------5----5---0--3-----3----5----5---0--3-------5----5---0--3-----3--|
D|---------------------------------------------------------------------------------------|


Guitar 2:

E|------------------------|
B|----101010-8------------|
G|--------------10-9------|
D|--------------------10--|
A|------------------------|
D|------------------------|


Can't count the years on one hand,
that we've been together.
I need the other one to hold you,
make you feel, make you feel better.
It's not a walk in the park,
to love each other.
But when our fingers interlock,
can't deny, can't deny your worth it.

Refrão:
(mute)                Bb5
Cause after all this time,
      C5        F5
I'm still into you.
(strum)                  Bb5       C5
I should be over all the butterflies,
              F5
But I'm into you.  (I'm into you)
                     Bb5        C5
And baby even on our worst nights,
          F5
I'm into you.  (I'm into you)
                       Bb5         C5
Let 'em wonder how we got this far,
                               D5       F5
Cause I don't really need to wonder at all.
                      Bb5
Yeah after all this time,
      C5        F5
I'm still into you.

Verso Intro Riff:

E|---------------------------------------------------------------------------------------|
B|---------------------------------------------------------------------------------------|
G|---------------------------------------------------------------------------------------|
D|------------------2-----------------2--------------------2---------------------2-------|
A|------------0--3--------------0--3----3-----------0--3------------------0--3-----3-----|
D|----3----3------------3----3--------------3----3-----------------3----3----------------|


Verso 2x:

E|---------------------------------------------------------------------------------------|
B|---------------------------------------------------------------------------------------|
G|---------------------------------------------------------------------------------------|
D|------------------2-----------------2--------------------2---------------------2-------|
A|------------0--3--------------0--3----3-----------0--3------------------0--3-----3-----|
D|----3----3------------3----3--------------3----3-----------------3----3----------------|


E|---------------------------------------------------------------------------------------|
B|---------------------------------------------------------------------------------------|
G|---------------------------------------------------------------------------------------|
D|-------------------2------------------2----------------------2-------------------2-----|
A|----5----5---0--3------5----5---0--3-----3----5----5---0--3-------5----5---0--3-----3--|
D|---------------------------------------------------------------------------------------|


Verso 2:
Recount the night that I first,
met your mother.
And on the drive back to my house,
I told you that, I told you that I loved ya.
You felt the weight of the world,
fall off your shoulder.
And to your favorite song,
we sang along, to the start of forever.

Refrão:
(mute)              Bb5
And after all this time,
      C5        F5
I'm still into you.
(strum)                  Bb5        C5
I should be over all the butterflies,
              F5
But I'm into you.  (I'm into you)
                     Bb5        C5
And baby even on our worst nights,
          F5
I'm into you.  (I'm into you)
                       Bb5         C5
Let 'em wonder how we got this far,
                               D5       F5
Cause I don't really need to wonder at all.
                      Bb5
Yeah after all this time,
      C5        F5
I'm still into you.

Solo 4x:

E|--------------------------------------------|
B|--------------------------------------------|
G|--------------------------------------------|
D|-------3--2----------3--2-------------------|
A|-------------3-------------3--5~--7-8--3~--|
D|----3-------------3-------------------------|


Verso 3:
Some things just, some things just make sense.
And one of those is you and I. (ohhhh)
Some things just, some things just make sense.
And even after all this time.

(mute)
Bb5 C5          F5
      I'm into you.
            Bb5
Baby not a day goes by,
          C5       F5
that I'm not into you.

Refrão:
(strum)                 Bb5        C5
I should be over all the butterflies,
              F5
But I'm into you.  (I'm into you)
                     Bb5        C5
And baby even on our worst nights,
          F5
I'm into you.  (I'm into you)
                       Bb5        C5
Let 'em wonder how we got this far,
                               D5       F5
Cause I don't really need to wonder at all.
                      Bb5
Yeah after all this time,
      C5        Bb5
I'm still into you.
      C5        Bb5
I'm still into you.
      C5        F5
I'm still into you.
  • 1
  • 2
  • 3
  • 4
  • 5
  • 6
  • 7
  • 8
  • 9
  • 10
  • 11
  • 12
    Acordes para:
      Composición: Hayley WilliamsColaboración y revision:

      0 comentarios

        mostrar mas comentarios

        ¿Conseguiste tocar?

        39tocaron1aún no

        ¡Grave un vídeo tocando Still Into You y envie para nosotros!

        00:00 / 00:00
        outros vídeos desta música
        repetirqualidadeautomática
        • automática
        Outro vídeos desta música
          00:00 / 00:00
          automática
          • automática
          1 versión de Contrabajoreproduccionescontribuciones
          2 versiones de Guitar Proformatodownloadscontribución
          cerrarplay/pause subir/bajar velocidad
            acordes
            cerrar
            OK
            Feedback