Cifra Club

Still Into You

Paramore

Cifrado: Principal (guitarra y guitarra eléctrica)
tono: F
Afinação: Drop D ( D A D G B E )

[Intro]

E|------------------------------------------|
B|------------------------------------------|
G|------------------------------------------|
D|------------2---------------2-------------|
A|--------0-3-------------0-3---3-----------|
E|-3----3----------3----3-------------------|

E|------------------------------------------|
B|------------------------------------------|
G|------------------------------------------|
D|------------2---------------2-------------|
A|--------0-3-------------0-3---3-----------|
E|-3----3----------3----3-------------------|

E|------------------------------------------|
B|------------------------------------------|
G|------------------------------------------|
D|------------2---------------2-------------|
A|-5----5-0-3------5----5-0-3---3-----------|
E|------------------------------------------|

E|------------------------------------------|
B|------------------------------------------|
G|------------------------------------------|
D|------------2---------------2-------------|
A|-5----5-0-3------5----5-0-3---3-----------|
E|------------------------------------------|

[Guitarra 2]

E|------------------------------------------|
B|-10--10-10-10-8---------------------------|
G|----------------10-9----------------------|
D|---------------------10-------------------|
A|------------------------------------------|
E|------------------------------------------|

[Primeira Parte]

Can't count the years on one hand
That we've been together
I need the other one to hold you
Make you feel, make you feel better
It's not a walk in the park
To love each other
But when our fingers interlock
Can't deny, can't deny your worth it

[Refrão]

                      Bb5
Cause after all this time
      C5        F5
I'm still into you
                          Bb5     C5
I should be over all the butterflies
              F5
But I'm into you. (I'm into you)
                      Bb5   C5
And baby even on our worst nights
          F5
I'm into you. (I'm into you)
                       Bb5      C5
Let 'em wonder how we got this far
                              D5       F5
Cause I don't really need to wonder at all
                     Bb5
Yeah after all this time
      C5        F5
I'm still into you

E|------------------------------------------|
B|------------------------------------------|
G|------------------------------------------|
D|------------2---------------2-------------|
A|--------0-3-------------0-3---3-----------|
E|-3----3----------3----3-------------------|

E|------------------------------------------|
B|------------------------------------------|
G|------------------------------------------|
D|------------2---------------2-------------|
A|--------0-3-------------0-3---3-----------|
E|-3----3----------3----3-------------------|

[Segunda Parte]

E|------------------------------------------|
B|------------------------------------------|
G|------------------------------------------|
D|------------2---------------2-------------|
A|--------0-3-------------0-3---3-----------|
E|-3----3----------3----3-------------------|

E|------------------------------------------|
B|------------------------------------------|
G|------------------------------------------|
D|------------2---------------2-------------|
A|--------0-3-------------0-3---3-----------|
E|-3----3----------3----3-------------------|

E|------------------------------------------|
B|------------------------------------------|
G|------------------------------------------|
D|------------2---------------2-------------|
A|-5----5-0-3------5----5-0-3---3-----------|
E|------------------------------------------|

E|------------------------------------------|
B|------------------------------------------|
G|------------------------------------------|
D|------------2---------------2-------------|
A|-5----5-0-3------5----5-0-3---3-----------|
E|------------------------------------------|

[Guitarra 2]

E|------------------------------------------|
B|-10--10-10-10-8---------------------------|
G|----------------10-9----------------------|
D|---------------------10-------------------|
A|------------------------------------------|
E|------------------------------------------|

Recount the night that I first
Met your mother
And on the drive back to my house
I told you that, I told you that I loved ya
You felt the weight of the world
Fall off your shoulder
And to your favorite song
We sang along, to the start of forever

[Refrão]

                    Bb5
And after all this time
      C5        F5
I'm still into you
                          Bb5     C5
I should be over all the butterflies
              F5
But I'm into you. (I'm into you)
                      Bb5   C5
And baby even on our worst nights
          F5
I'm into you. (I'm into you)
                       Bb5      C5
Let 'em wonder how we got this far
                              D5       F5
Cause I don't really need to wonder at all
                     Bb5
Yeah after all this time
      C5        F5
I'm still into you

[Solo]

E|------------------------------------------|
B|------------------------------------------|
G|------------------------------------------| (4x)
D|----3--2----------3--2--------------------|
A|----------3-------------3--5~--7-8-3~-----|
E|-3-------------3--------------------------|

[Ponte]

Some things just
Some things just make sense
And one of those is you and I
Some things just
Some things just make sense
And even after all this time

Bb5 C5          F5
      I'm into you
            Bb5
Baby not a day goes by
          C5       F5
That I'm not into you

[Refrão]

                          Bb5     C5
I should be over all the butterflies
              F5
But I'm into you. (I'm into you)
                      Bb5   C5
And baby even on our worst nights
          F5
I'm into you. (I'm into you)
                       Bb5      C5
Let 'em wonder how we got this far
                              D5       F5
Cause I don't really need to wonder at all
                     Bb5
Yeah after all this time
      C5        Bb5
I'm still into you
      C5        Bb5
I'm still into you
      C5        F5
I'm still into you
00:00 / 00:00
Otros videos de esta canción
Repetir
Otros videos de esta canción
Composición de Hayley Williams
14.503 vistas
  • Simplificar cifrado
    • ½ Tono
    • A
    • Bb
    • B
    • C
    • Db
    • D
    • Eb
    • E
    • F
    • F#
    • G
    • Ab
  • Agregar a la lista

    0 comentarios

    Ver todos los comentarios

    ¿Lograste tocar?

    53 Tocaron 5 Aún no

    ¡Graba un video tocando Still Into You y envíanoslo!

    00:00 / 00:00
    OK