Cifra Club

That's What You Get

Paramore

Cifrado: Principal (guitarra y guitarra eléctrica)
Selo Cifra Club: esta cifra foi revisada para atender aos critérios oficiais da nossa Equipe de Qualidade.
tono: Cm
[Intro] Ab7M  Bb  Cm7  Gm7 
        Ab7M  Bb  Cm7  Gm7 

[Tab - Intro - Guitarra Base]

   Ab7M                
E|------------------------------------------|
B|-8---8---8---x-x-x-x-8---8---8---x-x-x-x--|
G|-8---8---8---x-x-x-x-8---8---8---x-x-x-x--|
D|-6---6---6---x-x-x-x-6---6---6---x-x-x-x--|
A|-6---6---6---x-x-x-x-6---6---6---x-x-x-x--|
E|-6---6---6---x-x-x-x-6---6---6---x-x-x-x--|
   ↓   ↓   ↓   ↓ ↑ ↓ ↑ ↓   ↓   ↓   ↓ ↑ ↓ ↑

   Bb                     Cm7          Gm7                              
E|------------------------------------------|
B|-11---11---11---x-x-x-x-11---11---11--6---|
G|-10---10---10---x-x-x-x-12---12---12--7---|
D|-12---12---12---x-x-x-x-13---13---13--8---|
A|--8----8----8---x-x-x-x-10---10---10--5---|
E|--8----8----8---x-x-x-x-10---10---10--5---|
    ↓    ↓    ↓   ↓ ↑ ↓ ↑  ↓    ↓    ↓  ↓

[Tab - Intro - Guitarra Riff]

   Ab7M
E|------------------------------------------|
B|------------------------------------------|
G|---------------10-12-----------------12-15|
D|-10---10---10---------10---10---10--------|
A|----------------8-10-----------------10-13|
E|-10---10---10---------10---10---10--------|

   Bb                   Cm7           Gm7 
E|------------------------------------------|
B|------------------------------------------|
G|----------------15-17-12---12---12--10----|
D|-12---12---12-----------------------------|
A|----------------13-15-10---10---10---8----|
E|-12---12---12-----------------------------|

[Primeira Parte]

[Tab - Primeira Parte - Guitarra Base]

  P.M. .   .              .   .   .
E|------------------------------------------|
B|------------------------------------------|
G|------------------------------------------|
D|-6---6---6--------------6---6---6---------|
A|-6---6---6--------------6---6---6---------|
E|-6---6---6--------------6---6---6---------|
   ↓   ↓   ↓              ↓   ↓   ↓

  P.M. .   .             .    .    .
E|------------------------------------------|
B|------------------------------------------|
G|------------------------------------------|
D|-8---8---8-------------10---10---10-------|
A|-8---8---8-------------10---10---10-------|
E|-8---8---8-------------10---10---10-------|
   ↓   ↓   ↓              ↓    ↓    ↓

  P.M. .   .              .   .   .
E|------------------------------------------|
B|------------------------------------------|
G|------------------------------------------|
D|-6---6---6--------------6---6---6---------|
A|-6---6---6--------------6---6---6---------|
E|-6---6---6--------------6---6---6---------|
   ↓   ↓   ↓              ↓   ↓   ↓

  P.M. .   .             .    .    .
E|------------------------------------------|
B|------------------------------------------|
G|------------------------------------------|
D|-8---8---8-------------10---10---10-------|
A|-8---8---8-------------10---10---10-------|
E|-8---8---8-------------10---10---10-------|
   ↓   ↓   ↓              ↓    ↓    ↓

   Ab7M                
E|------------------------------------------|
B|-8---8---8---x-x-x-x-8---8---8---x-x-x-x--|
G|-8---8---8---x-x-x-x-8---8---8---x-x-x-x--|
D|-6---6---6---x-x-x-x-6---6---6---x-x-x-x--|
A|-6---6---6---x-x-x-x-6---6---6---x-x-x-x--|
E|-6---6---6---x-x-x-x-6---6---6---x-x-x-x--|
   ↓   ↓   ↓   ↓ ↑ ↓ ↑ ↓   ↓   ↓   ↓ ↑ ↓ ↑

   Bb                     Cm7          Gm7                              
E|------------------------------------------|
B|-11---11---11---x-x-x-x-11---11---11--6---|
G|-10---10---10---x-x-x-x-12---12---12--7---|
D|-12---12---12---x-x-x-x-13---13---13--8---|
A|--8----8----8---x-x-x-x-10---10---10--5---|
E|--8----8----8---x-x-x-x-10---10---10--5---|
    ↓    ↓    ↓   ↓ ↑ ↓ ↑  ↓    ↓    ↓  ↓

  P.M  .   .              .   .   .
E|------------------------------------------|
B|------------------------------------------|
G|------------------------------------------|
D|-6---6---6--------------6---6---6---------|
A|-6---6---6--------------6---6---6---------|
E|-6---6---6--------------6---6---6---------|
   ↓   ↓   ↓              ↓   ↓   ↓

  P.M. .   .             .    .    .
E|------------------------------------------|
B|------------------------------------------|
G|------------------------------------------|
D|-8---8---8-------------10---10---10-------|
A|-8---8---8-------------10---10---10-------|
E|-8---8---8-------------10---10---10-------|
   ↓   ↓   ↓              ↓    ↓    ↓

  P.M  .   .              .   .   .
E|------------------------------------------|
B|------------------------------------------|
G|------------------------------------------|
D|-6---6---6--------------6---6---6---------|
A|-6---6---6--------------6---6---6---------|
E|-6---6---6--------------6---6---6---------|
   ↓   ↓   ↓              ↓   ↓   ↓
 
  P.M. .   .             .    .    .
E|------------------------------------------|
B|------------------------------------------|
G|------------------------------------------|
D|-8---8---8-------------10---10---10---1---|
A|-8---8---8-------------10---10---10---1---|
E|-8---8---8-------------10---10---10---1---|
   ↓   ↓   ↓              ↓    ↓    ↓

[Tab - Primeira Parte - Guitarra Riff]

   Ab5
E|-6----------------------6-----------------|
B|-8----------------------6-----------------|
G|-8----------------------8-----------------|
D|------------------------------------------|
A|------------------------------------------|
E|------------------------------------------|

   Bb5                    C5
E|-6----------------------6-----------------|
B|-8----------------------6-----------------|
G|-8----------------------8-----------------|
D|------------------------------------------|
A|------------------------------------------|
E|------------------------------------------|

   Ab5
E|-6----------------------6-----------------|
B|-8----------------------6-----------------|
G|-8----------------------8-----------------|
D|------------------------------------------|
A|------------------------------------------|
E|------------------------------------------|

   Bb5                    C5
E|-6----------------------6-----------------|
B|-8----------------------6-----------------|
G|-8----------------------8-----------------|
D|------------------------------------------|
A|------------------------------------------|
E|------------------------------------------|

   Ab7M
E|------------------------------------------|
B|------------------------------------------|
G|---------------10-12-----------------12-15|
D|-10---10---10---------10---10---10--------|
A|----------------8-10-----------------10-13|
E|-10---10---10---------10---10---10--------|

   Bb                   Cm7           Gm7 
E|------------------------------------------|
B|------------------------------------------|
G|----------------15-17-12---12---12--10----|
D|-12---12---12-----------------------------|
A|----------------13-15-10---10---10---8----|
E|-12---12---12-----------------------------|

   Ab5
E|-6----------------------6-----------------|
B|-8----------------------6-----------------|
G|-8----------------------8-----------------|
D|------------------------------------------|
A|------------------------------------------|
E|------------------------------------------|

   Bb5                    C5
E|-6----------------------6-----------------|
B|-8----------------------6-----------------|
G|-8----------------------8-----------------|
D|------------------------------------------|
A|------------------------------------------|
E|------------------------------------------|

   Ab5
E|-6----------------------6-----------------|
B|-8----------------------6-----------------|
G|-8----------------------8-----------------|
D|------------------------------------------|
A|------------------------------------------|
E|------------------------------------------|

   Bb5                    C5            Eb5
E|-6----------------------6-----------------|
B|-8----------------------6-----------------|
G|-8----------------------8-------------8---|
D|--------------------------------------8---|
A|--------------------------------------6---|
E|------------------------------------------|

 Ab5
No, sir
                     Bb5
Well, I don't wanna be the blame
    C5
Not anymore
      Ab5
It's your turn

So take a seat
       Bb5          C5
We're settling the final score

      Ab7M
And why do we like
    Bb      Cm7
To hurt so much?
   Gm7 
I can't

 Ab5
Decide
                  Bb5            C5
You have made it harder just to go on
      Ab5
And why?
              Bb5
All the possibilities
      C5          Eb5
Well, I was wrong

[Refrão]

[Tab - Refrão - Guitarra Riff]

   Ab5           Eb5
E|-15--------15------11---------------------|
B|-----11--------15------15-----------------|
G|------------------------------------------|
D|------------------------------------------|
A|------------------------------------------|
E|------------------------------------------|

   C5            Bb5
E|-15--------15--13-------------------------|
B|-----11------------11------11-------------|
G|------------------------------------------|
D|------------------------------------------|
A|------------------------------------------|
E|------------------------------------------|

   Ab5             Eb5
E|-15------15----------11-------------------|
B|-----11-----11---15------15---------------|
G|------------------------------------------|
D|------------------------------------------|
A|------------------------------------------|
E|------------------------------------------|

   Bb5
E|-13-----------------13--------------------|
B|-----11----------11-----11----------------|
G|------------------------------------------|
D|------------------------------------------|
A|------------------------------------------|
E|------------------------------------------|

   C5                      Eb5
E|------------------------------------------|
B|------------------------------------------|
G|-------------12-12-15-15-12-12-12-12------|
D|-13-13-15-15-------------------------15~--|
A|------------------------------------------|
E|------------------------------------------|

   C5                      Eb5
E|------------------------------------------|
B|------------------------------------------|
G|-------------12-12-15-15------------------|
D|-13-13-15-15-------------15-15-15-15-15~--|
A|------------------------------------------|
E|------------------------------------------|

   Ab5           Eb5
E|-15------15--------11---------------------|
B|------11-------15------15-----------------|
G|------------------------------------------|
D|------------------------------------------|
A|------------------------------------------|
E|------------------------------------------|

   Bb5
E|-13------13------13------13---------------|
B|-----11------11------11------11-----------|
G|------------------------------------------|
D|------------------------------------------|
A|------------------------------------------|
E|------------------------------------------|

  Ab5
That's what you get
          Eb5               C5  Bb5
When you let your heart win
  Ab5 
That's what you get
          Eb5               Bb5
When you let your heart win

    C5                Bb5
I drowned out all my sense with
     C5              Bb5
The sound of its beating
      Ab5 
And that's what you get
          F5                Bb5 
When you let your heart win

( Ab7M  Bb  Cm7  Gm7 )
( Ab7M  Bb  Cm7  Gm7 )

[Segunda Parte]

   Ab5
I wonder
             Bb5
How am I supposed to feel
      C5
When you're not here
       Ab5
'Cause I burned
               Bb5
Every bridge I ever built
      C5
When you were here

    Ab5
I still try
               Bb5
Holding on to silly things
   C5
I never learn
      Ab5
Oh, why?
              Bb5
All the possibilities
     C5               Eb5
I'm sure you've heard

[Refrão]

  Ab5
That's what you get
          Eb5               C5  Bb5
When you let your heart win
  Ab5
That's what you get
          Eb5               C5  Bb5
When you let your heart win

    C5                 Bb5
I drowned out all my sense with
     C5              Bb5
The sound of its beating
      Ab5 
And that's what you get
          Eb5               Bb5
When you let your heart win

[Terceira Parte]

[Tab - Terceira Parte]

   Ab5
E|-6----------------------6-----------------|
B|-8----------------------6-----------------|
G|-8----------------------8-----------------|
D|------------------------------------------|
A|------------------------------------------|
E|------------------------------------------|

   Bb5                    C5
E|-6----------------------6-----------------|
B|-8----------------------6-----------------|
G|-8----------------------8-----------------|
D|------------------------------------------|
A|------------------------------------------|
E|------------------------------------------|

   Ab5
E|-6----------------------6-----------------|
B|-8----------------------6-----------------|
G|-8----------------------8-----------------|
D|------------------------------------------|
A|------------------------------------------|
E|------------------------------------------|

   Bb5                    C5
E|-6----------------------6-----------------|
B|-8----------------------6-----------------|
G|-8----------------------8-----------------|
D|------------------------------------------|
A|------------------------------------------|
E|------------------------------------------|

   Ab5
E|-6----------------------6-----------------|
B|-8----------------------6-----------------|
G|-8----------------------8-----------------|
D|------------------------------------------|
A|------------------------------------------|
E|------------------------------------------|

   Bb5                    C5
E|-6----------------------6-----------------|
B|-8----------------------6-----------------|
G|-8----------------------8-----------------|
D|------------------------------------------|
A|------------------------------------------|
E|------------------------------------------|

   Ab5
E|-6----------------------6-----------------|
B|-8----------------------6-----------------|
G|-8----------------------8-----------------|
D|------------------------------------------|
A|------------------------------------------|
E|------------------------------------------|

   Bb5                    C5
E|-6----------------------6-----------------|
B|-8----------------------6-----------------|
G|-8----------------------8-----------------|
D|------------------------------------------|
A|------------------------------------------|
E|------------------------------------------|

   Ab7M
E|------------------------------------------|
B|------------------------------------------|
G|---------------10-12-----------------12-15|
D|-10---10---10---------10---10---10--------|
A|----------------8-10-----------------10-13|
E|-10---10---10---------10---10---10--------|

   Bb                   Cm7           Gm7 
E|------------------------------------------|
B|------------------------------------------|
G|----------------15-17-12---12---12--10----|
D|-12---12---12-----------------------------|
A|----------------13-15-10---10---10---8----|
E|-12---12---12-----------------------------|

   Ab7M
E|------------------------------------------|
B|------------------------------------------|
G|---------------10-12-----------------12-15|
D|-10---10---10---------10---10---10--------|
A|----------------8-10-----------------10-13|
E|-10---10---10---------10---10---10--------|

   Bb                   Cm7           Gm7 
E|------------------------------------------|
B|------------------------------------------|
G|----------------15-17-12---12---12--10----|
D|-12---12---12-----------------------------|
A|----------------13-15-10---10---10---8----|
E|-12---12---12-----------------------------|

 Ab5                    Bb5    C5
Pain, make your way to me, to me
    Ab5                  Bb5    C5
And I'll always be just so inviting
   Ab5                  Bb5   C5
If I ever start to think straight
      Ab5                          Bb5
This heart will start a riot in me
             C5
Let's start,    start

  Ab7M             Bb      Cm7
Why do we like to hurt so much?
Gm7    Ab7M           Bb      Cm7
Oh,  why do we like to hurt so much?
Gm7 
    That's what you get
                            Bb5
When you let your heart win

[Refrão]

  Ab5
That's what you get
          Eb5               C5  Bb5
When you let your heart win
  Ab5
That's what you get
          Eb5               Bb5
When you let your heart win

    C5               Bb5   
Now I can't trust myself with
C5             Bb5
Anything but this
      Ab5
And that's what you get
          Eb5               Bb5
When you let your heart win

[Final] Ab7M  Eb5
00:00 / 00:00
Otros videos de esta canción
Repetir
Otros videos de esta canción
208.360 exhibiciones
    • ½ Tono
    • Am
    • Bbm
    • Bm
    • Cm
    • C#m
    • Dm
    • Ebm
    • Em
    • Fm
    • F#m
    • Gm
    • G#m
  • Agregar a la lista

Afinación de cifrado

Afinador online

    00:00 / 00:00
    Capítulos
    • Apresentação
    • Afinação em Drop D
    • Tocando a Base
    • Tocando os Riffs
    • Dicas Iniciais
    • Ensinando a Base da Intro e Primeira Parte
    • Ensinando os Riffs da Intro e da Primeira Parte
    • Dicas das Partes
    • Ensinando a Base do Refrão
    • Ensinando o Riff do Refrão
    • Encerramento e Dicas Finais
    OK