Cifra Club

Gitara

Parokya Ni Edgar

Tablatura: Versão 2 (guitarra)
Já pensou em usar uma coleção de roupas do Cifra Club? Responda as perguntas abaixo e nos ajude nessa missão! →
tono: C
 Album: Halina sa Parokya
 Track No. 4
 Song Length: 4:02
 Transcribed by: Allan John G. Amisola 
 E-mail add: *
 Date/Time: Wednesday August 05, 2005 - 7:19 pm
 Updated: Jan. 14, 2006
 
         Mga 'tol, naniniwala ako na kung destined talaga kau ng gf/bf mo
             Ehh talagang kau nga kahit sino pa ang asungot sa buhay nyo...
                 'yan ang gus2ng ipahatid ni2ng kntng 'to...maganda pang pang-harana!!!!


 [Standard Tuning] EBGDAe
 
 [Intro]
         Guitar 1 - G-Em/C-Cadd9-Dsus-D-D9-D
                    G-Em/C-Cadd9-Dsus-D-D9-D...
        
 e|-----------------------------------------------------------|
 B|----3-----x---3----3---x------3-----x---3----3---x---------|
 G|----2p0---x---2p0--2---x------2p0---x---2p0--2---x---------|
 D|----------x------------x------------x------------x---------|
 A|----------x------------x---0--2-----x---2--------x---------|
 E|----3---------3--------------------------------------------|

 e|--------------------------2h3--2-----0-----2---------------|
 B|-----3----x---3----3--x---3----3--x--3-----3---------------|
 G|-----2p0--x---2p0--2--x-----------x----(2)-----------------| 2x all...
 D|----------x-----------x---0-------x--0-----0---------------|
 A|--0--3----x---3-------x-----------x------------------------|
 E|-----------------------------------------------------------|
 
         Guitar 2 - riff

 e|--------------------------5/7-5-7-8-///15~------------------------|
 B|------------------8/10-8------------------------------------------|
 G|----5/7-/-9-9/11--------------------------------------------------|
 D|--------------------------------------------9h12-7h9p7------------|
 A|------------------------------------------------------------------|
 E|------------------------------------------------------------------|

 e|-------------------------------5/7-5-7-8-/12-10-7-7h8-5-----------|
 B|------------------8/10-8-10-8---------------------------8~--------|
 G|----5/7-/-9-9/11--------------------------------------------------|
 D|------------------------------------------------------------------|
 A|------------------------------------------------------------------|
 E|------------------------------------------------------------------|

 
 [Verse]
     G-Em/C-Cadd9-Dsus-D-D9-D
     G-Em/C-Cadd9-Dsus-D-D9-D...

 e|-----------------------------------------------------------|
 B|----3-----x---3----3---x------3-----x---3----3---x---------|
 G|----2p0---x---2p0--2---x------2p0---x---2p0--2---x---------|
 D|----------x------------x------------x------------x---------|
 A|----------x------------x---0--2-----x---2--------x---------|
 E|----3---------3--------------------------------------------|
      Bakit pa kailangang magbihis?

 e|--------------------------2h3--2-----0-----2---------------|
 B|-----3----x---3----3--x---3----3--x--3-----3---------------|
 G|-----2p0--x---2p0--2--x-----------x----(2)-----------------|
 D|----------x-----------x---0-------x--0-----0---------------|
 A|--0--3----x---3-------x-----------x------------------------|
 E|-----------------------------------------------------------|
      Sayang din naman ang porma,

 e|-----------------------------------------------------------|
 B|----3-----x---3----3---x------3-----x---3----3---x---------|
 G|----2p0---x---2p0--2---x------2p0---x---2p0--2---x---------|
 D|----------x------------x------------x------------x---------|
 A|----------x------------x---0--2-----x---2--------x---------|
 E|----3---------3--------------------------------------------|
      Lagi lang namang may sisingit

 e|--------------------------2h3--2-----0-----2---------------|
 B|-----3----x---3----3--x---3----3--x--3-----3---------------|
 G|-----2p0--x---2p0--2--x-----------x----(2)-----------------| 
 D|----------x-----------x---0-------x--0-----0---------------|
 A|--0--3----x---3-------x-----------x------------------------|
 E|-----------------------------------------------------------|
      Sa tuwing tayo'y magkasama


 [Verse 2]
     repeat verse 1 plucking - G-Em/C-Cadd9-Dsus-D-D9-D
                               G-Em/C-Cadd9-Dsus-D-D9-D...

 Bakit pa kailangan ng rosas
 Kung marami namang magaalay sayo
 Uupo na lang at await
 Maghihintay ng pagkakataon

 [Refrain]

   Am7                     D- Dsus
 e|------------------0------2--2-----2h3--2----------|
 B|---1---x---1------1--x---3--3--x--3----3---x------|
 G|---0---x---0---------x---------x-----------x------|
 D|-------x------(2)----x---0-----x--0--------x------|
 A|---0---x---0---------x---------x-----------x------|
 E|--------------------------------------------------|
   Hahayaan na lang silang

         G            D/F
3 reproducciones
    • ½ Tono
    • A
    • Bb
    • B
    • C
    • Db
    • D
    • Eb
    • E
    • F
    • F#
    • G
    • Ab
  • Adicionar à lista

    0 comentarios

    Ver todos os comentários

    ¿Conseguiste tocar?

    0 Tocaram 0 Ainda não

    Grave um vídeo tocando Gitara e nos envie!

    00:00 / 00:00
    outros vídeos desta música
    repetir qualidade Automático
    Outros vídeos desta música
    00:00 / 00:00
    Automático
    OK