Cifra Club

Silvertoes

Parokya Ni Edgar

Tab de bajo: Principal
tab by: Gilbert (mystical magic band)
Note:kapa-kapa lang 2!hnd ko sya kumplto!medjo mhrp din kc ung gnwang bass d2 ni 
nyo nlang...

                 MYSTICAL MAGIC BAND of bulacan
                 Vocalist: ERWIN
                 Rythm: Bart
                 bass: Gilbert
                 lid: Francis
                 Drums: Ron


intro:
G-Em-C-D

E]-3-----7s8-7----------------------------------------|
A]---5-3-------7-9-9s10-9-7--3-2-0-3-0-5--5---5-7-----|
D]------------------------------------------7---------|
G]----------------------------------------------------|

E]-3-----7s8-7----------------------------------------|
A]---5-3-------7-9-9s10-9-7--3-2-0-3-0-5-5------------|
D]-----------------------------------------7----------|
G]----------------------------------------------------|

refrain:
Em-C-G-D

E]-------------------0-3------------------------------|
A]-7-7-7---7-3-3s5-------5---------7-5-5---5-7--------|
D]-------9---------5-------5-5s7-5-------7------------|
G]----------------------------------------------------|

E]---------------------0-3--------------------7-5-3---|
A]-7-7-7---7-3-5-3s5-------5---------7-5-5-7-5--------|
D]-------9-----------5-------5-5s7-5------------------|
G]----------------------------------------------------|

ganyan lang sya ka-iksi kc paulit-ulit lang nmn yung bass eh!!!
Ung "s" slide (*) friendster ko
15 reproducciones

0 comentarios

Ver todos os comentários

¿Conseguiste tocar?

0 Tocaram 0 Ainda não

Grave um vídeo tocando Silvertoes e nos envie!

00:00 / 00:00
outros vídeos desta música
repetir qualidade Automático
Outros vídeos desta música
00:00 / 00:00
Automático
OK