Cifra Club

Niña Hechicera

Violeta Parra

Cifrado: Principal (guitarra y guitarra eléctrica)
tono: Eb
INTRO: D# - G# - D# - G# - D# (2 veces)(mismos acordes pa'l intermedio)

E|---------4-4---4-4-------|--------4-4------------|
B|---8-8---4-4---4-4---8-8-|--8-8---4-4---------8--|
G|---8-8---5-5---5-5---8-8-|--8-8---5-5---------8--|
D|---8-8---------------8-8-|--8-8---------------8--|
A|-6-----------------6-----|----------------5-6----|
E|-------4-----4-----------| 6-----6-----6-8--------|

E|---------4-4---4---------|--------4-4------------|
B|---8-----4-4---4-----8-8-|--8-8---4-4--4-4-6--8--|
G|---8-----5-5---5-----8-8-|--8-8---5-5--5-5-7--8--|
D|---8-----------------8-8-|--8-8---------------8--|
A|-----6-----------6-------|--------------3-5-6----|
E|-6-----4-----4-----6-----| 6-----6-----6----------|

Verso I D# - A# - D# - G# - A# - D# (Todos los versos los mismos acordes)

E|--------------------------------------------|
B|---8-8---8-8---8-8---6-6---6-6---6-6---6-6--|
G|---8-8---8-8---8-8---7-7---7-7---7-7---7-7--|
D|---8-8---8-8---8-8---8-8---8-8---8-8---8-8--|
A|--------------------------------------------|
E|-6-----6-----6-----6-----6-----6-----6------|

E|-----------------------------------------------------|
B|---8-8---8-8---8-8---8----4-4---4-4---6-6---6-6---8--|
G|---8-8---8-8---8-8---8----5-5---5-5---7-7---7-7---8--|
D|---8-8---8-8---8-8---8----6-6---6-6---8-8---8-8---8--|
A|-6-----------6---------6------------------------6----|
E|-------6-----------6-----4----4-----6-----6----------|

Verso II

E|--------------------------------------------|
B|---8-8---8-8---8-8---6-6---6-6---6-6---6-6--|
G|---8-8---8-8---8-8---7-7---7-7---7-7---7-7--|
D|---8-8---8-8---8-8---8-8---8-8---8-8---8-8--|
A|-------6------------------------------------|
E|-6-----------------6-----6-----6-----6------|

E|------------------------------------------------------|
B|---8-8---8-8---8-8---8-----4-4---4-4---6-6---6-6---8--|
G|---8-8---8-8---8-8---8-----5-5---5-5---7-7---7-7---8--|
D|---8-8---8-8---8-8---8-----6-6---6-6---8-8---8-8---8--|
A|-6-----------6---------6-------------------------6----|
E|-------6-----------6-----4-----4-----6-----6----------|

Verso III

E|--------------------------------------------|
B|---8-8---8-8---8-----6-6---6-6---6-6---6-6--|
G|---8-8---8-8---8-----7-7---7-7---7-7---7-7--|
D|---8-8---8-8---8-----8-8---8-8---8-8---8-8--|
A|-----------------6--------------------------|
E|-6-----6-----6-----6-----6-----6-----6------|

E|-----------------------------------------------------|
B|---8-8---8-8---8-8---8----4-4---4-4---6-6---6-6---8--|
G|---8-8---8-8---8-8---8----5-5---5-5---7-7---7-7---8--|
D|---8-8---8-8---8-8---8----6-6---6-6---8-8---8-8---8--|
A|-6-----------6---------6------------------------6----|
E|-------6-----------6-----4----4-----6-----6----------|


INTRO

Niña hechicera de rostro agraciado
dime si haz amado alguna vez por caridad
que yo ya siento mi alma transida
quiereme tu niña un poquitito y nada mas

ven ven ven hechicera mujer
ven ven ven ven te adoro con frenesi
si si ven hechicera a mis brazos
o sino de pena o sino de pena voy a morir

intermedio (parecido al intro pero repitiendo el ultimo verso en tablatura)

flor candorosa de gracia divina
tu eres la esperanza que mitiga mi dolor
y es tan inmensa ya mi pasion
que por ti suspira por ti delira mi corazon

flor candorosa de gracia divina
tu eres la esperanza que mitiga mi dolor
y es tan inmensa ya mi pasion
que por ti suspira por ti delira mi corazon

ven ven ven hechicera mujer
ven ven ven ven te adoro con frenesí
si si ven hechicera a mis brazos
o sino de pena o sino de pena voy a morir

E|------------|

un saludo a mis viejos que me incentivaron a sacar esta canción
(son muy adeptos del folklore nacional)
y un reconocimiento al aniversario nro. 50 sindicato Huachipato
(regalaron el casete que lleva esta canción d^^b)
Compositor no encontrado.
3 vistas
    • ½ Tono
    • A
    • Bb
    • B
    • C
    • Db
    • D
    • Eb
    • E
    • F
    • F#
    • G
    • Ab
  • Agregar a la lista

    0 comentarios

    Ver todos los comentarios

    ¿Lograste tocar?

    0 Tocaron 0 Aún no

    ¡Graba un video tocando Niña Hechicera y envíanoslo!

    00:00 / 00:00
    Otros videos de esta canción
    Repetir Calidad Automático
    Otros videos de esta canción
    00:00 / 00:00
    Automático
    OK