Cifra Club

Aprenda

And I Love Her

Passenger

Tablatura: Principal (guitarra)
Tom: C (con acordes en la forma de G) Capotraste na 5ª casa
C
She's a whistle on the wind 
G
Feather on the breeze 
Am7
Ripple on the stream 
          F
She is, sunlight on the sea 
C
She's a soft summer rain 
G
Falling gently trough the trees 
F               G
And I love her 

C
She's cunning as a fox 
G
Clever as a crow 
Am7
Solid as a rock  
         F
She is, stubborn as a stone 
C
She's a hard-headed woman 
G
And the best one that I know 
F                 G
And I love her 
                C
Yeah well, I love her 

C
She's as new as the springtime 
G
Strong as autumn blows 
Am7
Warm as the summer and, 
F
Soft as the snow 
C
She's a thousand miles from here 
G
But she's everywhere I go 
F                G
Cause I love her 

G
She loves me like a woman 
Em
She looks like a lady 
Am7
But she loves like a child 
D
And cries like a baby 
F
I think that maybe, 
           G
She's the one that's gonna save me 

C G Am7 F end on C


Intro

E|--------0----------------------0----------------------------0---------------|
B|--1--3-----1--------1----1--3-----------------3----0--1--3-----1--------1---|
G|----------------0--------------0---------0-------------------------0--------|
D|--2--3-----2------2------2--3-------0-------0------0--2--3-----2------2-----|
A|--------3-----3--------3------------------------------------0-----0-----0---|
E|---------------------------------3-----3---------3--------------------------|


E|--------------------------------------------------------------------|
B|--1--3--1-------1--------1----3p1-------------1--------1---1--3--1--|
G|------------0h2------2---------------2---0---------0----------------|
D|--2--3--2-------3------3------3--------3------2------2-----2--3--2--|
A|-------------------------------------------0-----0-------0----------|
E|----------- 1------1--------1------1--------------------------------|


E|---------------------------------------------------------------------------------------|
B|--0----------0----0h1--------1----1-------1-----1-------1-----1-------1-----1-------1--|
G|---------0---------------0------------0-------------0-------------0-------------0------|
D|-----0-----0------0h2------2------3-----3-------3-----3-------3-----3-------3-----3----|
A|---------------------------------------------------------------------------------------|
E|--3----3-------3-------3---------1---1--------1---1---------1---1---------1---1--------|

Verse 1

E|---------------------------------------------------|
B|----1-------1---1-------1---0-------0---0-------0--|
G|--------0-----------0-----------0-----------0------|
D|----2-----2-----2-----2-----0-----0-----0-----0----|
A|--3---3-------3---3--------------------------------|
E|--------------------------3---3-------3---3--------|

E|---------------------------------------------------|
B|----1-------1---1-------1---1-------1---1-------1--|
G|--------0-----------0-----------0-----------0------|
D|----2-----2-----2-----2-----3-----3-----3-----3----|
A|--0-----------0------------------------------------|
E|--------------------------1---1-------1---1--------|

E|---------------------------------------------------|
B|----1-------1---1-------1---0-------0---0-------0--|
G|--------0-----------0-----------0-----------0------|
D|----2-----2-----2-----2-----0-----0-----0-----0----|
A|--3---3-------3---3--------------------------------|
E|--------------------------3---3-------3---3--------|

E|-----------------------------------------------------|
B|----1-------1---1-------1-----1-------1---0-------0--|
G|--------0-----------0-------------0-----------0------|
D|----3-----3-----3-----3-----0h2-----2-----0-----0----|
A|--------------------------3-----3--------------------|
E|--1---1-------1---1---------------------3---3--------|

Verse 2

E|---------------------------------------------------|
B|----1-------1---1-------1---0-------0---0-------0--|
G|--------0-----------0-----------0-----------0------|
D|----2-----2-----2-----2-----0-----0-----0-----0----|
A|--3---3-------3---3--------------------------------|
E|--------------------------3---3-------3---3--------|

E|---------------------------------------------------|
B|----1-------1---1-------1---1-------1---1-------1--|
G|--------0-----------0-----------0-----------0------|
D|----2-----2-----2-----2-----3-----3-----3-----3----|
A|--0-----------0------------------------------------|
E|--------------------------1---1-------1---1--------|

E|---------------------------------------------------|
B|----1-------1---1-------1---0-------0---0-------0--|
G|--------0-----------0-----------0-----------0------|
D|----2-----2-----2-----2-----0-----0-----0-----0----|
A|--3---3-------3---3--------------------------------|
E|--------------------------3---3-------3---3--------|

E|---------------------------------------------------|
B|----1-------1---1-------1---1-------1---1-------1--|
G|--------0-----------0-----------0-----------0------|
D|----3-----3-----3-----3-----3-----3-----3-----3----|
A|---------------------------------------------------|
E|--1---1-------1---1-------1---1-------1---1--------|

Intro again

E|---------------------0------------------------0---------------------|
B|----1-------1---1--3-------------3---0--1--3-----1------1--1--3--1--|
G|--------0------------0-------0----------------------0---------------|
D|----2-----2-----2--3-----0-----0-----0--2--3-----2----2----2--3--2--|
A|--0---0-------0-------------------------------3----3----------------|
E|-----------------------3---3-------3--------------------------------|


E|--------------------------------------------------------------------------------|
B|------1-------1---3p1-----------1-------1---1--3--1--0---------0---0h1-------0--|
G|--0h2-----2-------------2---0-------0----------------------0-------------0------|
D|------3-----3-----3-------3-----2-----2-----2--3--2----0-----0-----0h2-----0----|
A|------------------------------0---0-------0-------------------------------------|
E|--1-----1-------1-----1------------------------------3---3-------3-----3--------|

E|-----------------------------------------------------|
B|----1-------1---1-------1-----1-------1---0-------0--|
G|--------0-----------0-------------0-----------0------|
D|----3-----3-----3-----3-----0h2-----2-----0-----0----|
A|--------------------------3-----3--------------------|
E|--1---1-------1---1---------------------3---3--------|

Verse 3

E|---------------------------------------------------|
B|----1-------1---1-------1---0-------0---0-------0--|
G|--------0-----------0-----------0-----------0------|
D|----2-----2-----2-----2-----0-----0-----0-----0----|
A|--3---3-------3---3--------------------------------|
E|--------------------------3---3-------3---3--------|

E|---------------------------------------------------|
B|----1-------1---1-------1---1-------1---1-------1--|
G|--------0-----------0-----------0-----------0------|
D|----2-----2-----2-----2-----3-----3-----3-----3----|
A|--0-----------0------------------------------------|
E|--------------------------1---1-------1---1--------|

E|---------------------------------------------------|
B|----1-------1---1-------1---0-------0---0-------0--|
G|--------0-----------0-----------0-----------0------|
D|----2-----2-----2-----2-----0-----0-----0-----0----|
A|--3---3-------3---3--------------------------------|
E|--------------------------3---3-------3---3--------|

E|-------------------------------------------------------|
B|----1-------1---1-------1------1-------1----1-------1--|
G|--------0-----------0------0h2-----2------------2------|
D|----3-----3-----3-----3--------3-----3------3-----3----|
A|-------------------------------------------------------|
E|--1---1-------1---1--------1-----1--------1---1--------|

Bridge

E|---------------------------------------------------|
B|----0-------0---0-------0---0-------0---0-------0--|
G|--------0-----------0-----------1-----------1------|
D|----0-----0-----0-----0-----2-----2-----2-----2----|
A|---------------------------------------------------|
E|--3---3-------3---3-------0---0-------0---0--------|


E|-----------------------------2-------2---2-------2--|
B|----1-------1---1-------1--------3-----------3------|
G|--------2-----------2--------2-----2-----2-----2----|
D|----2-----2-----2-----2----0---0-------0---0--------|
A|--0---0-------0---0---------------------------------|
E|----------------------------------------------------|

E|---------------------------------------------------|
B|----1-------1---1-------1---1-------1---1-------1--|
G|--------0-----------0-----------0-----------0------|
D|----3-----3-----3-----3-----0-----0-----0-----0----|
A|---------------------------------------------------|
E|--1---1-------1---1-------3---3-------3---3--------|

Outro

E|--------------5-------------5--------------------------|
B|----1-------1---------1-------------1-------1-------1--|
G|--------0---------0-------0-----0-------0-------0------|
D|----2-----2-----2-------2-----2-------2-----2-----2----|
A|--3---3-------3-----3-------3-----3-------3---3--------|
E|-------------------------------------------------------|

E|---------------3p0--------------------------------------|
B|----1-------1------------1-------1-------1---3-------1--|
G|--------0------------0-------0-------0-----------0------|
D|----2-----2--------2-------2-----3-----3-----3-----3----|
A|--0---0--------0-------0--------------------------------|
E|-------------------------------1---1-------1---1--------|


E|--0--------------------------------------------------|
B|----1-------1---3-------1---0-------0---0h1-------1--|
G|--------0-----------0-----------0-------------0------|
D|----2-----2-----2-----2-----0-----0-----0h2-----2----|
A|--3---3-------3---3----------------------------------|
E|--------------------------3---3-------3-----3--------|

E|-----------------------------|
B|----1-------1---1-------1----|
G|--------0-----------0--------|
D|----3-----3-----3-----3------|
A|-----------------------------|
E|--1---1-------1---1-------1--|
Colaboración y revision:
  • Gabriel Ramos
  • Eric Oliveira
  • Gustavo Serra
1.035 reproducciones
    • ½ Tom
    • A
    • Bb
    • B
    • C
    • Db
    • D
    • Eb
    • E
    • F
    • F#
    • G
    • Ab
  • Adicionar à lista

    0 comentarios

    Mostrar mais comentários

    ¿Conseguiste tocar?

    2 Tocaron 0 Ainda não

    Grave um vídeo tocando And I Love Her e mande pra gente!

    00:00 / 00:00
    outros vídeos desta música
    repetir qualidade Automático
    Outros vídeos desta música
    00:00 / 00:00
    Automático
    OK