Cifra Club

Divers And Submarines

Passenger

Cifrado: Principal (guitarra y guitarra eléctrica)
Selo Cifra Club: esta cifra foi revisada para atender aos critérios oficiais da nossa Equipe de Qualidade.
tono: Em
Em     022000
G6     320030
C      x32010
Am7    x02010
Dsus2  xx0230

Capo 7th fret


  Em                       G6                       C
E|------------------------|------------------------|------------------------|
B|---0-----0-----0-----0--|---3-----3-----3-----3--|---1-----1-----1-----1--|
G|-----0-----0-----0-----0|-----0-----0-----0-----0|-----0-----0-----0-----0|
D|------------------------|-------0-----------0----|-------2-----------2----|
A|-------2-----------2----|------------------------|-3-----------3----------|
E|-0-----------0----------|-3-----------3----------|------------------------|
                I clung to you                  Like cat hair clings to a


  Am7         Dsus2
E|------------------------|
B|---1-----0-----3-----3--|
G|-----0-----0-----2-----2|
D|-------2-----0-----0----|
A|-0----------------------|
E|------------------------|
   Woolen      shirt
Otros videos de esta canción
    27 exhibiciones
      • ½ Tono
      • Am
      • Bbm
      • Bm
      • Cm
      • C#m
      • Dm
      • Ebm
      • Em
      • Fm
      • F#m
      • Gm
      • G#m
    • Agregar a la lista

    Afinación de cifrado

    Afinador online

      OK