Cifra Club

Eye Of The Tiger

Passenger

Cifrado: Principal (guitarra y guitarra eléctrica)
Selo Cifra Club: esta cifra foi revisada para atender aos critérios oficiais da nossa Equipe de Qualidade.
tono: C
Fmaj7  1x321x
C      x32x1x

[INTRO]

  Am                        G           Am                        G
E|------------------|------------------|------------------|------------------|
B|----1-----------1-|----1-----------0-|----1-----------1-|----1-----------0-|
G|----------2-------|----------0-------|----------2-------|----------0-------|
D|----2--------2----|----2--------0----|----2--------2----|----2--------0----|
A|-0-----0----------|-0----------------|-0-----0----------|-0----------------|
E|------------------|-------3----------|------------------|-------3----------|

  Fmaj7                                                    G
E|------------------|------------------|------------------|------------------|
B|----1-----------1-|----1-----------1-|----1-----------1-|----0-----------0-|
G|----------2-------|----------2-------|----------2-------|----------0-------|
D|----3--------3----|----3--------3----|----3--------3----|----0--------0----|
A|------------------|------------------|------------------|------------------|
E|-1-----1----------|-1-----1----------|-1-----1----------|-3-----3----------|

[VERSE]

         Risin' up,                     back on the street.
  Am
E|------------------|------------------|------------------|------------------|
B|----------------1-|----------------1-|----------------1-|----------------0-|
G|----------2-------|----------2-------|----------2-------|----------2-------|
D|----2--------2----|----2--------2----|----2--------2----|----2--------2----|
A|-0-----0----------|-0-----0----------|-0-----0----------|-0-----0----------|
E|------------------|------------------|------------------|------------------|

         Took my time,                  took my chances.
  G                                     Am
E|------------------|------------------|------------------|------------------|
B|----------------0-|----------------1-|----------------1-|----1-----------1-|
G|----------0-------|----------0-------|----------2-------|----------2-------|
D|----0--------0----|----0--------0----|----2--------2----|----2--------2----|
A|------------------|------------------|-0-----0----------|-0-----0----------|
E|-3-----3----------|-3-----3----------|------------------|------------------|

         Went the distance,    now I'm back on my feet.
  Am
E|------------------|------------------|------------------|------------------|
B|----------------1-|----------------1-|----------------1-|----------------0-|
G|----------2-------|----------2-------|----------2-------|----------2-------|
D|----2--------2----|----2--------2----|----2--------2----|----2--------2----|
A|-0-----0----------|-0-----0----------|-0-----0----------|-0-----0----------|
E|------------------|------------------|------------------|------------------|

         Just a man      with his will to survive.                It's the...
  G                                     Am
E|------------------|------------------|------------------|------------------|
B|----------------0-|----------------1-|----------------1-|----------------1-|
G|----------0-------|----------0-------|----------2-------|----------2-------|
D|----0--------0----|----0--------0----|----2--------2----|----2--------2----|
A|------------------|------------------|-0-----0----------|-0-----0----------|
E|-3-----3----------|-3-----3----------|------------------|------------------|

[CHORUS]

       Eye of the tiger, It's the thrill of the fight.                  Risin'
  Fmaj7                                 C                  G
E|------------------|------------------|------------------|------------------|
B|----------------1-|----------------1-|----------------1-|----------------0-|
G|----------2-------|----------2-------|----------0-------|----------0-------|
D|----3--------3----|----3--------3----|----2--------2----|----0--------0----|
A|------------------|------------------|-3-----3----------|------------------|
E|-1-----1----------|-1-----1----------|------------------|-3-----3----------|

  up     to the challenge         of our rival.                        And the
  Fmaj7                                 C      G
E|------------------|------------------|------------------|------------------|
B|----------------1-|----------------1-|----------------0-|----------------0-|
G|----------2-------|----------2-------|----------0-------|----------0-------|
D|----3--------3----|----3--------3----|----2--------0----|----0--------0----|
A|------------------|------------------|-3----------------|------------------|
E|-1-----1----------|-1-----1----------|-------3----------|-3-----3----------|

 last known survivor       stalks his prey in the night               And he's
  Fmaj7                                 C                  G
E|------------------|------------------|------------------|------------------|
B|----------------1-|----------------1-|----------------1-|----------------0-|
G|----------2-------|----------2-------|----------0-------|----------0-------|
D|----3--------3----|----3--------3----|----2--------2----|----0--------0----|
A|------------------|------------------|-3-----3----------|------------------|
E|-1-----1----------|-1-----1----------|------------------|-3-----3----------|

  watching us all with the eye...                    of the tiger.
  Fmaj7                                                     C
E|-0----------------|------------------|------------------|-0----------------|
B|-1----------------|------------------|------------------|-1----------------|
G|-2----------------|------------------|------------------|-0----------------|
D|-3----------------|------------------|------------------|-2----------------|
A|-0----------------|------------------|------------------|-3----------------|
E|-1----------------|------------------|------------------|-0----------------|
Otros videos de esta canción
    58 exhibiciones
      • ½ Tono
      • A
      • Bb
      • B
      • C
      • Db
      • D
      • Eb
      • E
      • F
      • F#
      • G
      • Ab
    • Agregar a la lista

    Afinación de cifrado

    Afinador online

      OK