Cifra Club

Ill Be Your Man

Passenger

Cifrado: Principal (guitarra y guitarra eléctrica)
Selo Cifra Club: esta cifra foi revisada para atender aos critérios oficiais da nossa Equipe de Qualidade.
tono: G
[Intro]
  G
E|3---------------| 2p0-------------|0---------------|------------------|
B|------0-------0-|------3------3--|------3-------0-|----0---------0---|
G|----------0-----|----------0-----|----------0-----|----------0-------|
D|----0-------0---|----0-------0---|----0-------0---|----0-------0-----|
A|----------------|----------------|----------------|------------------|
E|3-------3-------| 3-------3-------|3-------3-------|3-------3---------|

E|3---------------| 2p0-------------|0---------------|------------------|
B|------0-------0-|------3-------3-|------3-------0-|----0---1---3-----|
G|----------0-----|----------0-----|----------0-----|------------------|
D|----0-------0---|----0-------0---|----0-------0---|----0-------------|
A|----------------|----------------|----------------|--------0---2-----|
E|3-------3-------| 3-------3-------|3-------3-------|3-----------------|

  C                                 Dadd4
E|0---------------| 3---------------|5---------------|7-----------------|
B|----1---------1-|------1-------1-|----3---------3-|------3-------0---|
G|----------0-----|----------0-----|----------0-----|----------0-------|
D|----2-------2---|----2-------2---|----4-------4---|----4-------4-----|
A|3-------3-------| 3-------3-------|5-------5-------|5-------5---------|
E|----------------|----------------|----------------|------------------|

  G
E|3---------------| 2p0-------------|----------------|------------------|
B|------0-------0-|------3-------1p| 0---0---------0h|1---0-------0-----|
G|----------0-----|----------0-----|----------0-----|--------2---------|
D|----0-------0---|----0-------0---|----0-------0---|----0-------0-----|
A|----------------|----------------|----------------|------------------|
E|3-------3-------| 3-------3-------|3-------3-------|3-------3---------|

Am                  C     Dadd4          G
Give me one last dance, while I still stand
Am                  C                Dadd4          G
Give me one last chance to build my house upon the sand
Am                 C              Dadd4      Em     G
Give me one last hope of holding water in my hands
Am                 C         Dadd4         G
Give me one last chance, and I'll be your man
             Am       C
Oh, I'll be your man
Dadd4        G
Oh, I'll be your man
             Am       C
Oh, I'll be your man
Dadd4    G
Oh-oh...

(short intersection - intro'ish)

Am                   C              Dadd4        G
Show me one shining star, and I'll show you the sky
Am                  C              Dadd4          G
Bring all your old scars, and I'll kiss them goodbye
Am                    C          Dadd4         Em       G
You show me where to start, you show me where to stand
        Am                          C         Dadd4          G
Oh, for one last time give me your heart, and I'll be your man
             Am       C
Oh, I'll be your man
Dadd4        G
Oh, I'll be your man
             Am       C
Oh, I'll be your man
     D
Oh-oh...

(short intersection - intro'ish)
          Am                         C
'Cause I never compromised my whole life
                         G
now I realize that it's time to make a change
        D
or I'll end up feeling strange
        Am                         C            Dadd4
In the dying of my days, when that old shallow grave
            G
is calling me
             Am       C
So, I'll be your man
Dadd4        G
So, I'll be your man
             Am       C
So, I'll be your man
    G
Oh-oh...

-end-
E|-------------------------------------------------------------------------------------------------|
Otros videos de esta canción
    10 exhibiciones
      • ½ Tono
      • A
      • Bb
      • B
      • C
      • Db
      • D
      • Eb
      • E
      • F
      • F#
      • G
      • Ab
    • Agregar a la lista

    Afinación de cifrado

    Afinador online

      OK