Cifra Club

In The End

Passenger

Cifrado: Principal (guitarra y guitarra eléctrica)
Selo Cifra Club: esta cifra foi revisada para atender aos critérios oficiais da nossa Equipe de Qualidade.
tono: G
G5    3x003x
Dadd4 x5403x
Gsus4 3x0013

[Intro Tab]
   G5              C                 Am7             D7
E|-----------------0h3p0-----------|-0---------------2p0-------------|
B|-3---------------------1---------|-1-------------------------1-----|
G|-----------0---0-----------0-----|-0---------0---0-------2---------|
D|-----0-------0-------------------|-----2-------2---0---------------|
A|-----------------3---------------|-0-------------------------------|
E|-3-------3-----------------------|---------------------------------|
   1 e + a 2 e + a 3 e + a 4 e + a | 1 e + a 2 e + a 3 e + a 4 e + a |

   G5              C                 Am7             D7
E|-----------------0h3p0-----------|-0---------------2---------------|
B|-3---------------------1---------|-1---------1-----1---------------|
G|-----------0---0-----------0-----|-0-----0-----0---2---------------|
D|-----0-------0-------------------|-----2-----------0---------------|
A|-----------------3---------------|-0-------------------------------|
E|-3-------3-----------------------|---------------------------------|
   1 e + a 2 e + a 3 e + a 4 e + a | 1 e + a 2 e + a 3 e + a 4 e + a |

[Intro]
G C Am7 D7
G C Am7 D7

[Verse 1]
         G            C   C/B
Well the past is the past
    Am7            D7
The future is not yet
    G            C    C/B        Am7                D7
The dye has been cast though the paint's no longer wet
           G     (F#)     Em            Am7                D7
If you're willing to forgive then maybe one day you'll forget

[Chorus 1]
        Am7                   C
Darlin' ain't that worth a try
                 Dadd4
Ain't it worth a try when

[Verse 2]
G            C   C/B
Yesterday is gone
     Am7             D7
And tomorrow is not here
     G             C                 Am7          D7
The days they are long but how they quickly disappear
       G    (F#)     Em                   Am7             D7
If you learn to move on that's when the pathway becomes clear

[Chorus 2]
        Am7
Darlin' ain't that worth a try
C                  Dadd4
  Ain't it worth a try

[Bridge]
       G              C C/B Am7
To see / black from blue
   D7               G          C C/B Am7
Perhaps it's just a point of view
    D7               G   (F#)  Em       C     Dadd4
And maybe this one's down / to you my friend

In the end

[Instrumental]
G C Am7 D7
G C Am7 D7

[Verse 3]
             G                 C  C/B
For there's moments that have gone
     Am7               D7 (D C)
And some are still to be
G                      C        C/B     Am7            D7
  And everyday that's passed is just a raindrop on the sea
       G    (F#)    Em        Am7                 D7
If you learn to let go, maybe one day you'll be free

[Chorus 3]
       Am7
Baby ain't that worth a try
C                  Dadd4
  Ain't it worth a try

[Bridge]
       G              C C/B Am7
To see / black from blue
   D7               G          C C/B Am7
Perhaps it's just a point of view
   D7               G   (F#)  Em       C     Dadd4
Or maybe this one's down / to you my friend

[Outro]
     G            C C/B Am7
To see red from green
        D7             G          C C/B Am7
Oh, and all the colors / in between
D7            G (F#) Em       C      Dadd4
Maybe this is just a dream my friend
            G Gsus4 G
In the end
Otros videos de esta canción
    24 exhibiciones
      • ½ Tono
      • A
      • Bb
      • B
      • C
      • Db
      • D
      • Eb
      • E
      • F
      • F#
      • G
      • Ab
    • Agregar a la lista

    Afinación de cifrado

    Afinador online

      OK