Cifra Club

Let Her Go

Passenger

Cifrado: Principal (guitarra y guitarra eléctrica)
Selo Cifra Club: esta cifra foi revisada para atender aos critérios oficiais da nossa Equipe de Qualidade.
tono: G
E|---7-----------------7--------------|
A|-10-10-8---8-8-----10-10-8---8-10-8-|
D|--------7h9-9-9-----------7h9-9-----|
G|------------------------------------|
B|------------------------------------|
E|------------------------------------|

E|---7-----------10-7----7-|
A|-10-10-8---8-------8-10--|
D|--------7h9-9-9----------|
G|-------------------------|
B|-------------------------|
E|-------------------------|

Otros videos de esta canción
    32.017 exhibiciones
      • ½ Tono
      • A
      • Bb
      • B
      • C
      • Db
      • D
      • Eb
      • E
      • F
      • F#
      • G
      • Ab
    • Agregar a la lista

    Afinación de cifrado

    Afinador online

      OK