Cifra Club

Rainbows

Passenger

Cifrado: Principal (guitarra y guitarra eléctrica)
Selo Cifra Club: esta cifra foi revisada para atender aos critérios oficiais da nossa Equipe de Qualidade.
tono: Db
  section A:
E|------------------------------------------|
B|---------11------------11------------11---|
G|----11------------11------------11--------|
D|-------11------------11------------11-----|
A|-9----------------------------------------|
E|---------------9-------------11-----------|

  section B:
E|-----------|
B|---------9-|
G|---11------|
D|------11---|
A|-11--------|
E|-----------|


intro A x4

(A)
Glass was shattered here
Midst the burning smell of fear
Dressed in plainclothes

(A)
Bloodstain on the snow
Looks like red wine on the clothes
Of a sailor

(B)She lives in a photograph
Waits for you to make her laugh 

interlude A x4

(A)
Life was shattered here
Midst a thousand mothers' tears
We'll need rainclothes

(A)
And teardrops melt the snow
Reveal the oil spill in the road
Looks like rainbows

(B)
Drunk upon the scaffolding
Swinging around
Otros videos de esta canción
    14 exhibiciones
      • ½ Tono
      • A
      • Bb
      • B
      • C
      • Db
      • D
      • Eb
      • E
      • F
      • F#
      • G
      • Ab
    • Agregar a la lista

    Afinación de cifrado

    Afinador online

      OK