Cifra Club

Remember To Forget

Passenger

Cifrado: Principal (guitarra y guitarra eléctrica)
Selo Cifra Club: esta cifra foi revisada para atender aos critérios oficiais da nossa Equipe de Qualidade.
tono: Am
   Fsus2
     F             C
E|---------------------------------|
B|-------1-------------------------|
G|-0h2-------2---0-----------------|
D|-----3------(3)------------------|
A|-----------------3---------------|
E|-1-------1-----------------------|
   1 e + a 2 e + a 3 e + a 4 e + a

[Chords]
C     x32010
E7    020100
Fsus2 1x301x
Gsus4 3x001x
G5    3x003x
G7    3x0001

[Intro]
   C               E7                Am              D7
E|-0-------------------------0-----|-----------------2---------------|
B|-1---------------------0---------|-1---------------1---------1-----|
G|-0---------0-----1---------------|-----------2-----2-----2---------|
D|-----2-------2-------0-----------|-----2-------2---0---0---0---0---|
A|-3-------3-----------------------|-0-------0-----------------------|
E|-----------------0---------------|---------------------------------|
   1 e + a 2 e + a 3 e + a 4 e + a   1 e + a 2 e + a 3 e + a 4 e + a

   Fsus2
     Fmaj7         G7                C               G
E|-----------0-----1---------------|---------------------------------|
B|-------1---------0-------------0-|-1-------------1---------------0-|
G|-0h2-------------0---------0-----|-----------0---------------0-----|
D|-----3---------------0-------0---|-----2-------2-------0-------0---|
A|---------------------------------|-3-------3-----------------------|
E|-1---------------3-------3-------|-----------------3-------3-------|
   1 e + a 2 e + a 3 e + a 4 e + a   1 e + a 2 e + a 3 e + a 4 e + a
                                                               I'm a...


[Intro]
C E7 Am D7 Fsus2 Fmaj7 G7 C G


[Verse]
     C
I’m a over thinker
E7
  A daydreamer
Am
  A heavy drinker
F
  An inbetweener
C                  G                        Fsus2 F G
  Propping up the bar like it’s gonna fall down

     C
I'm a shit talker
E7
  A bad joker
Am
  A Johnnie Walker
F**
  A chain smoker
C            G                   Fsus2 F
  Everyone knows it all over town

[Pre-Chorus]
Dm          Am
  And I know  we’ve just met
C                 G
  And you don’t know my deal yet
Dm       Am              G   Gsus4 G
  But I wondered if you could

[Chorus]
C            G            Fsus2 F**
  Help me remember to forget
     C          G                 Am  F**
Cos I, I don't wanna wake up yet
C                 E7
  Stay with me through the night
Am           F**
  Until the morning light
C            G            Fsus2 F
  Help me remember to forget
Gsus4
  Yeah

[Instrumental]
C E7 Am D7 Fsus2 F G7 (E) C Gsus4


[Verse]
     C
I’m a future gazer
E7
  A past dweller
Am                         F**
  And I’ve always been a story teller
C               G                F  G
  But no one’s listening anymore

     C
I’m a late comer
E7
  A last chancer
Am                   Fsus2
  A slow runner and a final dancer
C              G                    Fmaj7
  You see me glide across the flo-o-or


[Pre-Chorus]
Dm          Am                  C
  And I know  that it sounds strange
              G      Gsus4 G
And I’ve got nothing to    exchange
Dm       Am                   G  Gsus4 G5 G7
  But I wondered if you would


[Chorus]
C            G            Fmaj7
  Help me remember to forget
     C          G                 Am   F**
Cos I, I don't wanna wake up yet
C                 E7
  Stay with me through the night
Am           F**
  Until the morning light
C            G            Fsus2
  Help me remember to forget
Fsus2
  Yeah


[Instrumental]
C E7 Am D7 Fsus2 F G7 (E) C  G
C E7 Am F** C G Fsus2 F Gsus4 G


[Outro]
C*              G*           Fsus2*
  So help me remember to forget
     C*         G*               Am*
Cos I, I don't wanna wake up yet
C*                E7*
  Stay with me through the night
Am*           F*
  Until the morning light
C*           G*           Fsus2*  Gsus4 (B G D) C
  Help me remember to forget
Otros videos de esta canción
    64 exhibiciones
      • ½ Tono
      • Am
      • Bbm
      • Bm
      • Cm
      • C#m
      • Dm
      • Ebm
      • Em
      • Fm
      • F#m
      • Gm
      • G#m
    • Agregar a la lista

    Afinación de cifrado

    Afinador online

      OK