Cifra Club

Sword From The Stone

Passenger

Cifrado: Principal (guitarra y guitarra eléctrica)
Selo Cifra Club: esta cifra foi revisada para atender aos critérios oficiais da nossa Equipe de Qualidade.
tono: G
Basic fingerpicking pattern throughout the verses.
E|---------------------------------0h2-------0---------------------|
B|---1---------1----0--------0-----------3----------0--------0-----|
G|---------0-------------0---------2-------2-------------0---------|
D|---0h2-----2------0------0-----0-----0------------0------0-------|
A|-3-----3---------------------------------------------------------|
E|----------------3----3-------------------------3------3----------|
   C              G              D               G

In a few parts chords change faster and then you just play bass sound of the chord.


Chorus
E|--------------------------------0h2-------0--------------------|
B|---0--------0----0--------0-----------3--------1---------1-----|
G|--------0-------------0---------2-------2------------0---------|
D|---2------2------0------0-----0-----0----------2-------2-------|
A|---------------------------------------------0-----0-----------|
E|-0----0--------3----3------------------------------------------|
   Em            G              D              Am7

E|-------------------------------0h2-------2h3--2--------0----------| |---------------|
B|---0-------0----0--------0-----------3-------------3--------------| |-------1~------|
G|-------0-------------0---------2-------2------2------2------------| |------0~-------|
D|---2-----2------0------0-----0-----0-------0-----0----------------| |-----2~--------|
A|------------------------------------------------------------------| |----0~---------|
E|-0---0--------3----3----------------------------------------------| |---------------|
   Em           G              D                                        2nd ending in Am7


[Intro]
Em G D Am7
Em G D

[Verse 1]
C             G             
  Well how ya doing, darling?
D         G          D
  How you getting on?
C     G         
  Any horses running
D        Em       D   
  Worth betting on?
C           G                  
  How's the weather down there?
D              G         D 
  I hope you're keeping warm
C

[Verse 2]
C         G                 
  How you feeling, sweetheart?
D         G      D
  Are you moving on?
C         G            
  Are you sleeping okay
D           Em        D       
  Or do the nights go on and on?
C               G          
  I hope you're eating well
D               G             D
  I hope you're staying strong
C

[Chorus]
 Em         G              
   'Cos I'm fine, then I'm not
D               Am7               
  I'm spinning 'round and I can't stop
Em        G             D
  I can't do this alone
Em       G                    
   time flies and it's so slow
D           Am7             
  I'm up and down like a yo-yo
Em        G           D
  I can't do it on my own
         Am7                N.C.
And I've tried and I can't pull the sword from the stone

[Interlude]
Em G D Am7
Em G D


[Verse 3]
C              G       
  How are your mum and dad?
D            G           D
  How's your brother too?
C             G         
  My folks are holding up
D              G       D    
  My sister's pulling through
C              G          
  And both the cats say "hi"
D             G         D 
  I know they miss you too
C

[Chorus]
 Em         G              
   'Cos I'm fine, then I'm not
D               Am7               
  I'm spinning 'round and I can't stop
Em        G             D
  I can't do this alone
Em       G                    
   time flies and it's so slow
D           Am7             
  I'm up and down like a yo-yo
Em        G           D
  I can't do it on my own
         Am7                N.C.
And I've tried and I can't pull the sword from the stone


[Solo]
G D C Em G D
Em G D C
Em G D


[Chorus]
 Em         G              
   'Cos I'm fine, then I'm not
D               Am7               
  I'm spinning 'round and I can't stop
Em        G             D
  I can't do this alone
Em       G                    
   time flies and it's so slow
D           Am7             
  I'm up and down like a yo-yo
Em        G           D
  I can't do it on my own
         Am7                N.C.
See I've tried and I can't pull the sword from the stone
Otros videos de esta canción
    490 exhibiciones
      • ½ Tono
      • A
      • Bb
      • B
      • C
      • Db
      • D
      • Eb
      • E
      • F
      • F#
      • G
      • Ab
    • Agregar a la lista

    Afinación de cifrado

    Afinador online

      OK