Cifra Club

Two Tales

Passenger

Cifrado: Principal (guitarra y guitarra eléctrica)
Selo Cifra Club: esta cifra foi revisada para atender aos critérios oficiais da nossa Equipe de Qualidade.
tono: Em
Strumming pattern (not quite sure..):
E|-------------------------|
B|--x-------x--------------|
G|-------------x-----------|
D|------x---------x--------|
A|--x----------------------|
E|-------------------------|

Intro & Verse

E|-----------------------------------------------------------------|
B|---8------8------------8------8------------8------8--------------|
G|-------------0-------------------0-------------------0-----------|
D|------9---------9---------9---------9---------9---------9--------|
A|---7-------------------7-------------------7---------------------|
E|-----------------------------------------------------------------|

E|-----------------------------------------------------------------|
B|---7------7------------5------5------------5------5--------------|
G|-------------0-------------------0-------------------0-----------|
D|------7---------7---------5---------5---------5---------5--------|
A|---5-------------------3-------------------3---------------------|
E|-----------------------------------------------------------------|

E|------------------------------------------|
B|----5------5------------7------7----------|
G|--------------0-------------------0-------|
D|-------5---------5---------7---------7----|
A|----3-------------------5-----------------|
E|------------------------------------------|

Chorus
                 x4                   x4
E|------------------------------------------|
B|---3------3-------------5------5----------|
G|-------------0--------------------0-------|
D|------4---------4----------5---------5----|
A|---2--------------------3-----------------|
E|------------------------------------------|

Bridge
(repeat each chord 4 times)
E|---------------------------------------------------|
B|----0-----4-----5-----1-----3-----1-----3----------|
G|----0-----4-----0-----0-----0-----0-----0----------|
D|----0-----4-----5-----2-----4-----2-----4----------|
A|----------2-----3-----0-----2-----3-----2----------|
E|----3----------------------------------------------|

Outro
*strumming              *sometimes Mike uses these chords instead; or with
E|------------| |---0----0---|
B|---3---5----| |---0----1---|
G|---0---0----| |---0----0---|
D|---4---5----| |---2----2---|
A|---2---3----| |---2----3---|
E|------------| |---0--------|
Otros videos de esta canción
    17 exhibiciones
      • ½ Tono
      • Am
      • Bbm
      • Bm
      • Cm
      • C#m
      • Dm
      • Ebm
      • Em
      • Fm
      • F#m
      • Gm
      • G#m
    • Agregar a la lista

    Afinación de cifrado

    Afinador online

      OK