Cifra Club

Cater 2 U

Passion

Cifrado: Principal (guitarra y guitarra eléctrica)
tono: B
tabbed by: The4LMNTS
email: *

well.. here's cater 2 u.  i play it a litle bit differently.  i just added a couple 
here and there.  anyway.. here's how i play it.  it's pretty much the same.. with some lil extras.

e|-----7----------------------------6h9------------x|
B|----9---6h7--4h5--5h7p5--------7h9---7---4----7~-x|
G|---8----6~---4~--------4------6-------6--4----6~-x|
D|--9-----6h8--4h6--------6----8-----------4----8~-x|
A|-7------6~---4~--4--------4/6------------x--6----x|
E|-----------------------------------------4-------x|

e|-----------------------------------------6h9----4-------x|
B|---7h9-7h9-7h9-6h7--4h5--5h7p5--------7h9---7---4----7~-x|
G|---8---8---8---6~---4~---------------6-------6--4----6~-x|
D|--9------------6h8--4h6-------------8-----------4----8~-x|
A|-7-------------6~---4~--4------4-5-6------------x--6----x|
E|------------------------------------------------4-------x|

lather, rinse, and repeat throughout the whole song.

enjoy! =)
00:00 / 00:00
Otros videos de esta canción
Repetir
Otros videos de esta canción
Compositor no encontrado.
17 exhibiciones
    • ½ Tono
    • A
    • Bb
    • B
    • C
    • Db
    • D
    • Eb
    • E
    • F
    • F#
    • G
    • Ab
  • Agregar a la lista
    00:00 / 00:00
    OK