Cifra Club

Refiners Fire

Passion

Cifrado: Principal (guitarra y guitarra eléctrica)
tono: A
refiners fire
tabbed by dalonstyliciouz

use ur own creativity for certain parts!
have fun

------------------------------------------------------------------

intro & verse
     D          A     Bm       Em           Asus A
----0h2-------------------0---0--------0------------0--|
---3---3------2---2---3-------0------3--3-----3-2-3-3--|
--2-----2----2---0---2-2-2----0-------0--0----2-2-2----|
-0----------2---2---4---4-----0--------3-------2-2-2---|
-----------0---1---2----------2------------------------|
-------------------------------------------------------|

chorus

--2-2---3-3----0------------2-2-5--3-3----0-------5----|
--3-3---3-3--3--3--2--2/3---3------3----3--3--2--3-----|
--2-2---0-0--2-----2--------2------0--0-2-----2--------|
--0--0-----0-------2--------0-----------------2--------|
-------------------------------------------------------|
--------3-3------------------------3-------------------|

is to be...
-----5-----5-------5-------5-------0-------0---------0-|
----3-3---3-3-----3-3-----3-3-----3-3-----3-3-----3----|
---2---2-2---2---2---2---2---2---2---2---2---2---2-2---|
--0-----0---------------------------------------2---2--|
---------------4------4--------2-------2-------0-------|

i choose to be...
-----5-----5-------5-------5-------0-------0---------0-|
----3-3---3-3-----3-3-----3-3-----3-3-----3-3-----3----|
---2---2-2---2---2---2---2---2---2---2---2---2---2-2---|
--0-----0---------------------------------------2---2--|
---------------4------4--------2-------2-------0-------|

ready to do your will...
--0-0-0-3--0-0-0-2-|
--0-3-2-3--0-3-2-3-|
--0-2-2-0--0-2-2-2-|
--0-2-2-0--0-2-2-0-|
--2-0-0-2--2-0-0-0-|
--------3----------|
00:00 / 00:00
Otros videos de esta canción
Repetir
Otros videos de esta canción
Compositor no encontrado.
12 exhibiciones
    • ½ Tono
    • A
    • Bb
    • B
    • C
    • Db
    • D
    • Eb
    • E
    • F
    • F#
    • G
    • Ab
  • Agregar a la lista
    00:00 / 00:00
    OK