Cifra Club

So Sick Intro

Passion

Cifrado: Principal (guitarra y guitarra eléctrica)
tono: G (con acordes en la forma de F#) Capotraste en 1ª casa
Tabbed by:elwood

Tuning:standard

I SEE ALOT OF PEOPLE TELLING OTHER PEOPLE CAN YOU NOT USE A CAPO FOR THIS SONG BUT KNOW YOU
NEED A * luc,i know its messed up.

STANZA
e|----------------------------------------------6----------------------------|
B|----------------------6--------------------------7----------------6--------|
G|----------------------------6----------------------------------------6-----|
D|-----------------8---------------------------9--------------8--------------|
A|-------6----------------------------6------------------6-------------------|
E|----------------------------7----------------------------------------------|

e|--------------------------------------------------------------------------|
B|--------------------6-----------6-----------------------------------------|
G|------------------6----------6--------------------------------------------|
D|----------------6---------6-----------------------------------------------|
A|--------------------------------------------------------------------------|
E|------------9--------10---------------------------------------------------|

e|----------------------------------------------6---------------------------|
B|----------------------6--------------------------7----------------6-------|
G|----------------------------6----------------------------------------6----|
D|-----------------8---------------------------9--------------8-------------|
A|-------6----------------------------6------------------6------------------|
E|----------------------------7---------------------------------------------|

e|--------------------------------------------------------------------------|
B|--6h7-6h7--6h7--6h7-6h7--6h7---6h7---6h7----------------------------------|
G|-6---6---6-----6---6----6----6-----6--------------------------------------|
D|--------------------------------------------------------------------------|
A|--------------------------------------------------------------------------|
E|--------------------------------------------------------------------------|

STANZA

| /  slide up
| \  slide down
| h  hammer-on
| p  pull-off
| ~  vibrato
| +  harmonic
| x  Mute note

i knoe that it is a little messed * who cares.im only 12.
00:00 / 00:00
Otros videos de esta canción
Repetir
Otros videos de esta canción
Compositor no encontrado.
16 exhibiciones
    • ½ Tono
    • A
    • Bb
    • B
    • C
    • Db
    • D
    • Eb
    • E
    • F
    • F#
    • G
    • Ab
  • Agregar a la lista
    00:00 / 00:00
    OK