Cifra Club

So Sick

Passion

Cifrado: Principal (guitarra y guitarra eléctrica)
tono: B (con acordes en la forma de F) Capotraste en 6ª casa
Tab by AlexT_Canada

CAPO 6
I couldn't figure out the chorus right but i tried. You could just
do the stanza the whole way through instead, still sounds good =D. This is my first full tab.

INTRO
E:--------------0------------------------------------|x2
B:-----0----------1--------1-----------0-------0-----|
G:-------0----------0--------0-------0-------0-------|
D:---2-----2--3----------3-----3---0-------0---------|
A:-0---------0---------------------------------------|
E:----------1--------0h1---------3-------4-----------|
 

E:-----------------0---------------------------------|
B:-----0-0-----------1---------1-1---------0-0-------|
G:---------0----------0------------0-----0-----0-----|
D:---2----0-----3------3-----3----3----0---------0---|
A:-0-----------0-------------------------------------|
E:------------1----------0h1---------3---------------|
        ^           ^           ^           ^
       tap         tap         tap         tap


E:---------------------------------------------------|
B:-0h1--0h1--0h1--0h1--0h1--0h1--0h1--0h1------------|
G:----0----0----0----0----0----0----0----0-----------|
D:---------------------------------------------------|
A:---------------------------------------------------|
E:-1------------------------1------------------------|


STANZA
E:-----------------0---------------------------------|x2
B:-----0-0-----------1---------1-1---------0-------0-|
G:---------0----------0------------0-----0-------0---|
D:---2----0-----3------3-----3----3----0-------0-----|
A:-0-----------0-------------------------------------|
E:------------1----------0h1---------3-------4-------|
        ^           ^           ^
       tap         tap         tap


E:-----------------0---------------------------------|
B:-----0-0-----------1---------1-1---------0-0-------|
G:---------0----------0------------0-----0-----0-----|
D:---2----0-----3------3-----3----3----0---------0---|
A:-0-----------0-------------------------------------|
E:------------1----------0h1---------3---------------|
        ^           ^           ^           ^
       tap         tap         tap         tap


E:--------------------------|x2
B:-0h1--0h1--0h1--0h1--0h1--|
G:----0----0----0----0----0-|
D:--------------------------|
A:--------------------------|
E:-1------------------------|


CHORUS
E:-00--000--0----------------------------------------|
B:-11--111--1----1------0----0-----------------------|
G:-00--000--0---0-0----0----0------------------------|
D:-22--333--3--3---3--0----0-------------------------|
A:-00--000--0----------------------------------------|
E:-00-0111-01--------3----4--------------------------|
   DU  DUD  D


E:------------0000------------------------------------|
B:-----0-0----1111--------1-1----------0-------0------|
G:---------0--0000------------0------0-------0--------|
D:---2----0---3333------3----3-----0-------0----------|
A:-0----------0000------------------------------------|
E:------------1111--0h1----------3-------4------------|
        ^     DUUD         ^        
       tap                tap         


E:-00--000--0----------------------------------------|
B:-11--111--1----1------0----------------------------|
G:-00--000--0---0-0----0-0---------------------------|
D:-22--333--3--3---3--0---0--------------------------|
A:-00--000--0----------------------------------------|
E:-00-0111-01--------3-------------------------------|
   DU  DUD  D


E:---------------------------------------------------|
B:-0h1--0h1--0h1--0h1--0h1--0h1--0h1--0h1------------|
G:----0----0----0----0----0----0----0----0-----------|
D:---------------------------------------------------|
A:---------------------------------------------------|
E:-1------------------------1------------------------|


BRIDGE
E:-0-x--------0-0------0000-x------0-0-0-------------|
B:-1-0-0--0-1-1-1---1--1111-0-0--0-1-1-1--1----1-----|
G:-0-0-0--0---0-0---0--0000-0-0--0-0-0-0--0---0-0----|
D:-0-0-0--0---3-----3--3333-0-0--0-0-3----3--3---3---|
A:-x-x--------x--------xxxx-x--------x---------------|
E:-1-3---3----1---1----1111-3---3----1---1--1-----1--|
   D D  ^     D  ^     UDUD    ^   D D  ^
       tap      tap           tap      tap


E:-x------0-0-0--------------------------------------|
B:-0-0--0-1-1-1---1-----0--0---11-1-1----------------|
G:-0-0--0-0-0-0---0-----0--0---11-1-1----------------|
D:-0-0--0-0-3-----3-----0--0---00-0-0----------------|
A:-x--------x----------------------------------------|
E:-3---3----1---1---0-3---3----11-1-1----------------|
   D  ^     D  ^         ^  ^        
     tap      tap       taptap

INTRO
STANZA x2
CHORUS
STANZA
CHORUS
BRIDGE
CHORUS x2
00:00 / 00:00
Otros videos de esta canción
Repetir
Otros videos de esta canción
Compositor no encontrado.
17 exhibiciones
    • ½ Tono
    • A
    • Bb
    • B
    • C
    • Db
    • D
    • Eb
    • E
    • F
    • F#
    • G
    • Ab
  • Agregar a la lista
    00:00 / 00:00
    OK