Cifra Club

Ultraman

Pastilla

Cifrado: Principal (guitarra y guitarra eléctrica)
Selo Cifra Club: esta cifra foi revisada para atender aos critérios oficiais da nossa Equipe de Qualidade.
tono: Em
E|------------------------------------------------|
B|------------------------------------------------|
G|------------------------------------------------|
D|------------------------------------------------|
A|--0--0--0--0--2--3--5--5--5--5--7--5--2--0------|
E|------------------------------------------------|

E|------------------------------------------------|
B|------------------------------------------------|
G|------------------------------------------------|
D|------------------------------------------------|
A|--------------0--2--3--3--3--3--2--3--2--0--0---|
E|--3--3--3--3------------------------------------|

 **ARDG LO GUITARRA**
E|-----------------------------------------------------------------|
B|-----------------8--10--10--8--10--------------------------------|
G|--9--9--9--7--9--------------------7--------7--------7--------7--|
D|--------------------------------------7--9-----7--9-----7--9-----|
A|-----------------------------------------------------------------|
E|-----------------------------------------------------------------|

E|----------------------------------------------10-----------------|
B|-----------------8--10--10--8--10--8--10--12------12--10------10-|
G|--9--9--9--7--9-------------------------------------------12-----|
D|-----------------------------------------------------------------|
A|-----------------------------------------------------------------|
E|-----------------------------------------------------------------|

**ARDG LO 1**

E|----------------------------------------------------------------|
B|-----------------8--7--8--7-------------------------------------|
G|--9--9--9--7--9--------------9--8--7--------7--------7--------7-|
D|--------------------------------------7--9-----7--9-----7--9----|
A|----------------------------------------------------------------|
E|----------------------------------------------------------------|

E|----------------------------------------------------------------|
B|-----------------8--7--8--7-------------------------------------|
G|--9--9--9--7--9--------------9--8--7--------7--------7--------7-|
D|--------------------------------------7--9-----7--9-----7--9----|
A|----------------------------------------------------------------|
E|----------------------------------------------------------------|

A     D             G  
Me robaste el interior
      C     B    A 
me dejaste tu dolor
            D            G  
te has marchado al ultraman
       C      B    A 
te fuiste sin avisar
      D          G  
yo jamas me imagine
       C     B      A 
en quedarme donde estoy
      D             G  
sin palabras sin razon

      C      B     A      D      G  
yo me voy al ultraman

(**ARDG LO 1**)

(**ARDG LO GUITARRA**)

C      B     A      D      G       C      B 
yo me voy al ultraman

(**ARDG LO 1**)

(**ARDG LO GUITARRA**)

A      D       G         C      B 

A      D              G  
Ahora que todo es normal
           C     B    A 
no me he vuelto a soñar
        D          G  
tal vez lo conseguire
      C       B    A      D     G  
ese viaje al ultraman

(**ARDG LO 1**)

(**ARDG LO GUITARRA**)

       C       B    A      D     G  
C       B 
ese viaje al ultraman

(**ARDG LO 1**)

(**ARDG LO GUITARRA**)

A     D     G      C     B 

C                  G  
Mira que nada es igual
C                     G  
cuando cuando tu no estas
     D     C     D 
me dijo un avestruz
C      B     A      G  
cuando me miro marchar
C      B     A      G  
cuando me miro marchar

**la segunda parte se toca igual que la primera**


Ahora que todo es normal,
no me he vuelto a imaginar
sin palabras sin razon, yo
me voy al ultraman
yo me voy al ultraman

Mira que nada es igual,
cuando cuando tu no estas
me dijo un avestruz, cuando
me miro marchar
cuando me miro marchar....
Otros videos de esta canción
    15 exhibiciones
      • ½ Tono
      • Am
      • Bbm
      • Bm
      • Cm
      • C#m
      • Dm
      • Ebm
      • Em
      • Fm
      • F#m
      • Gm
      • G#m
    • Agregar a la lista

    Afinação da cifra

    Afinador online

      Ops (: Contenido disponible solo en portugués.
      OK