Cifra Club

Valiente

Paty Cantú

Cifrado: Principal (guitarra y guitarra eléctrica)
tono: Dm
                         F                     Dm                   Asus2

E|----1----| ----1----             ----1----
B|----1----| ----3----             ----1----
G|----2----| ----2----             ----3----
D|----3----| ----0----             ----3----
A|----3----| ----0----             ----1----
E|----1----| ----*----             ----1----

INTRO:

E|-----------6--5---------------6--5---------------6--5----------------------|
B|-----6---6------6-------6---6------6-------6---6------6-------6---6--------|
G|-5-5---5------------5-5---5------------5-5---5------------5-5---5----------|
D|---------------------------------------------------------------------------|
A|---------------------------------------------------------------------------|
E|---------------------------------------------------------------------------|




F
Fue una noche larga
Fue una noche cruel
Dm
Nos herimos tanto
Yo no sé por qué
Asus2
Y en nuestra tormenta
                      F
No ha dejado de llover
F
Me dejaste sola
No supe qué hacer
Dm
Y salí a buscarte
Y me encontré con él
Asus2
Me falló la mente           F
Me fallo la piel, me equivoqué



F
Vuelve,No quise destruirnos
                    Dm
Hay tanto que decirnos
Por un error no mates lo que somos
          Asus2
Lo que fuimos  Perdóname mi amor
                F
Perdóname mi amor




F
Vuelve
Por este amor valiente
                        Dm
No hay nada que no enfrente
La guerra es contra comprender
                  Asus2
Que solo somos gente
Que ama y que miente
                F
Perdóname mi amor




F
No me hagas preguntas
Que no responderé
Dm
No todo es blanco y negro
Hay tanto gris también
Asus2
Pero me arrepiento
                    F
Y lo tienes que saber

F
Vuelve,No quise destruirnos
                    Dm
Hay tanto que decirnos
Por un error no mates lo que somos
          Asus2
Lo que fuimos  Perdóname mi amor
                F
Perdóname mi amor




F
Vuelve
Por este amor valiente
                        Dm
No hay nada que no enfrente
La guerra es contra comprender
                  Asus2
Que solo somos gente
Que ama y que miente
                F
Perdóname mi amor


E|-----------------------------------------------------------------------------|
Composición de Paty Cantú
13 vistas
    • ½ Tono
    • Am
    • Bbm
    • Bm
    • Cm
    • C#m
    • Dm
    • Ebm
    • Em
    • Fm
    • F#m
    • Gm
    • G#m
  • Agregar a la lista

    0 comentarios

    Ver todos los comentarios

    ¿Lograste tocar?

    0 Tocaron 0 Aún no

    ¡Graba un video tocando Valiente y envíanoslo!

    00:00 / 00:00
    Outros vídeos desta música
    Repetir Calidad Automático
    Outros vídeos desta música
    00:00 / 00:00
    Automático
    OK