Cifra Club

Aprenda

And I Love Her

Paul McCartney

Tablatura: Principal (guitarra)
Tom: A
Intro:
                        F#m             E6              F#m
E|-------------------------------------------------------|
B|-------------------------------------------------------|
G|-------------------------------------------------------|
D|---2--1-----------2--1-------------2--1----------------|
A|-2-------4------2-------4-------2--------4-------------|
E|-------------------------------------------------------|

F#m        C#m           F#m           C#m
I give her all my love    That's all I do
F#m        C#m             A             B7
And if you saw my love    You'd love her too
   E
I love her

                   F#m                            C#m
E|----------9--------------9------------9-----------9----------|
B|------10-----10------10-----10-----9-----9-----9-----9-------|
G|--11-------------11-------------9-----------9----------------|
D|-------------------------------------------------------------|
A|-------------------------------------------------------------|
E|-------------------------------------------------------------|
           She    gives  me       every     thing

F#m       C#m     F#m           C#m
And tenderly        The kiss my lover brings

                                                    B
E|---------9-------------9--------------11---------------------|
B|-----10-----10-----10-----10------10------10-----------------|
G|--9-------------9-------------11-----------------------------|
D|-------------------------------------------------------------|
A|-------------------------------------------------------------|
E|-------------------------------------------------------------|
          She    brings to      me

                                   E
E|----------11------------9-----------9-----------9------------|
B|------10------10-----9-----9-----9-----9-----9-----9---------|
G|--11--------------9-----------9-----------9-----------9------|
D|-------------------------------------------------------------|
A|-------------------------------------------------------------|
E|-------------------------------------------------------------|
       And  I  love    her

C#m          B      C#m        Abm
A love like ours    could never die
C#m       Abm             B7
As long as I   have you near me

F#m             C#m               F#m         C#m
Bright are the stars that shine   Dark is the sky
F#m         C#m             A          B
I know this love of mine   Will never die
        E
And I love her

Solo: Gm  Dm  Gm  Dm  Gm  Dm  Bb  C7  F  Gm

E|---------------------------------------------------------------------------------------|
B|---------------------------------------------------------------------------------------|
G|---------9-7/10---------9/7---------9-7/10---10/7--------------------------------------|
D|--5--7-8---------5--7-8------5--7-8---------------8-7-7/5-------7----------------------|
A|----------------------------------------------------------3-3-5---3--------------------|
E|--------------------------------------------------------------------5-3-1-3------------|

Gm              Dm                Gm          Dm
Bright are the stars that shine   Dark is the sky
Gm          Dm              Bb         C7
I know this love of mine   Will never die
        F
And I love her

Final: Gm  Dm  Gm  D
Compositor John Lennon / Paul McCartney
Colaboración y revision:
  • Pedro Arantes
1.712 reproducciones
  • Simplificar cifra
    • ½ Tom
    • A
    • Bb
    • B
    • C
    • Db
    • D
    • Eb
    • E
    • F
    • F#
    • G
    • Ab
  • Adicionar à lista

    0 comentarios

    Mostrar mais comentários

    ¿Conseguiste tocar?

    5 Tocaron 1 Ainda não

    Grave um vídeo tocando And I Love Her e mande pra gente!

    00:00 / 00:00
    outros vídeos desta música
    repetir qualidade Automático
    Outros vídeos desta música
    00:00 / 00:00
    Automático
    OK