Cifra Club

Back in The USSR

Paul McCartney

Tablatura: Principal (guitarra)
Tom: E
Refrão:
E|-5-3------8-6-5--10-8-7--------
B|-----5------------------7------
G|-------5-----------------------
D|-------------------------------
A|-------------------------------
E|-------------------------------

Solo
|---------------------------------------------------------------------------|
|15-------15--15-------15--15-------15--15-------15--15------15------15-----|
|17b(19)-(19)-17b(19)-(19)-17b(19)-(19)-17b(19)-(19)-17b(19)-17b(19)-17b(19)|
|---------------------------------------------------------------------------|
|---------------------------------------------------------------------------|
|---------------------------------------------------------------------------|

|---------------------------------------------------------------------------|
|---------15--15b(17)b15----------------------------------------------------|
|-17--17------------------17--14--14-----15-b(19)17-b(19)17-b(19)17-b(19)17-|
|---------------------------------------------------------------------------|
|---------------------------------------------------------------------------|
|---------------------------------------------------------------------------|

|-------------------------------------|
|---------15--15b(17)b15--------------|
|-17--17------------------17--14--14--|
|-------------------------------------|
|-------------------------------------|
|-------------------------------------|


[Intro:] E

 A                       D
Flew in from Miami Beach B. O. A. C.
 C                      D
Didn't get to bed last night
A                            D
On the way the paperback was on my knee
 C                     D
Man I had a dreadful flight

                      A
I'm back in the U.S.S.R.
C                            D
You don't know how lucky you are boy
                  A    D  Eb E
Back in the U.S.S.R.

Been away so long I hardly knew the place
Gee it's good to be back home
Leave it till tomorrow to unpack my case
Honey disconnect the phone

I'm back in the U.S.S.R.
You don't know how lucky you are boy
G9
Back in the U.S.
Back in the U.S.
                  A
Back in the U.S.S.R.

            D
Well the Ukraine girls really knock me out
       A
They leave the West behind
       D   A/C#           C       B7
And Moscow girls make me sing and shout
       E7                         D7             A     D  Eb E
That Geogia's always on my mi mi mi mi mi mi mind         Oh come on!

Oh, show me 'round your snow-peaked mountains way down south
Take me to your daddy's farm
Let me hear your balalaikais ringing out
Come and keep your comrade warm
reproducciones 262
Acordes para:

    0 comentarios

    mostrar más comentarios

    ¿Conseguiste tocar?

    1 tocaron 0 aún no

    ¡Graba un vídeo tocando Back in The USSR y envianoslo!

    00:00 / 00:00
    outros vídeos desta música
    repetir qualidade Automático
    Outros vídeos desta música
    00:00 / 00:00
    Automático
    OK