Cifra Club

Blackbird

Paul McCartney

Tablatura: Principal (guitarra)
Tom: C
Intro:
E|----------------------7----7--7----7--7----7--7----
B|----0-----1-----3-----0----0--0----0--0----0--0----
G|----0-----0-----0-----0----0--0----0--0----0--0----
D|----------------------5----5--5----5--5----5--5----
A|---------------------------------------------------
E|----3--3--3--3--3--3-------------------------------

Blackbird singing...
E|-------------------7----7--7--
B|----0-----1-----3--0--0-0--0--
G|----0-----0-----0--0----0--0--
D|-------------------5-5--5--5--
A|------------------------------
E|----3--3--3--3--3-------------

Take these...
E|----------3-----------5------------------
B|----5-----------7-----------8-----8--8---
G|--------------------------------0--------
D|-----------------------------------------
A|----3--3--4--4--5--5--6--6--7--7--7--6---
E|-----------------------------------------

All your life
E|-------------------------------
B|----7-----8-----5-------5--4---
G|----------------0----0--0--0---
D|-------------------------------
A|----5--5--6--6--3--3----3--3---
E|-------------------------------

You were only...
E|------------------------------------------------
B|----3-------3--2-------2--1-------1--0-------0--
G|----0----0--0--0----0--0--0----0--0--0----0--0--
D|------------------------------------------------
A|----2--2----2--1--1----1--0--0----0-------------
E|-------------------------------------3--3----3--

E|------------------------------------------------------------
B|-----5---3---2------2---1------1----0-------0---------------
G|-----------------0----------0------------0--0---------------
D|------------------------------------------------------------
A|-----3---2---1------1---0-----------------------------------
E|------------------------------------3--3----3---------------

Blackbird,fly
E|----5--3---------------------------
B|----------6---5---3-------3----5---
G|------------------0----0--0--------
D|----3--2---------------------------
A|----------5---3---1--1----1----3---
E|-----------------------------------

E|----5--3------------------------------------------------------
B|----------6---5---3-------3--2-------2--1-------1--0-------0--
G|------------------0----0--0--0----0--0--0----0--0--0----0--0--
D|----3--2------------------------------------------------------
A|----------5---3---2--2----2--1--1----1--0--0----0-------------
E|---------------------------------------------------3--3----3--

G
Blackbird singing in the dead of night,
 C                 D7                 Em Em7+
Take these broken wings and learn to fly
D    D4   C  Cm7
All your life,
G/B            Bbº              Am7        G  C G/B Bbº Am7 G
You were only waiting for this moment to arise

G
Blackbird singing in the dead of night,
 C                D7                 Em Em7+
Take these sunken eyes and learn to see
D    D4   C   Cm7
All your life,
G/B            Bbº              Am7           G
You were only waiting for this moment to be free

 F Em Dm C Bb C
Blackbird,fly
 F Em Dm C G/B Bbº      Am7               G
Blackbird,fly Into the light of a dark, blacknight
reproducciones 4.146
Acordes para:

    0 comentarios

    mostrar más comentarios

    ¿Conseguiste tocar?

    11 tocaron 2 aún no

    ¡Graba un vídeo tocando Blackbird y envianoslo!

    00:00 / 00:00
    outros vídeos desta música
    repetir qualidade Automático
    Outros vídeos desta música
    00:00 / 00:00
    Automático
    OK