Cifra Club

Coming Up

Paul McCartney

Tab de bajo: Principal
Arranged for 4-string bass, with standard tuning.

INTRO: Bounce on Eb for 1st and 3rd beat for four bars.

VERSE: Repeat througout verse 1,2,3

g-|-------------------------|------------------------
d-|-------------------------|------------------------
a-|--6----------6-----------|--6----------6----------
e-|-------------------------|------------------------
     1  +  2  +  3  +  4  +    1  +  2  +  3  +  4  +

g-|-------------------------|------------------------
d-|-------------------------|-------------5*-----8---
a-|--6----------6-----------|--6---------------------
e-|-------------------------|------------------------
     1  +  2  +  3  +  4  +    1  +  2  +  3  +  4  +

* Not played on last bar of verse)

CHORUS: (Play through Twice for each chorus)

g-|-------------------------|-------------------------
d-|-------------------------|-------------------------
a-|-------------------------|--3-----------4----------
e-|--4-----------6----------|-------------------------
     1  +  2  +  3  +  4  +    1  +  2  +  3  +  4  +

g-|-------------------------|-------------------------
d-|-------------------------|--5----------------------
a-|--6-----------8----------|--------------6----------
e-|-------------------------|-------------------------
     1  +  2  +  3  +  4  +    1  +  2  +  3  +  4  +

BREAK/Instrumental
     Eb (two bars) | Ab (four bars) | Eb (four bars) |

CODA: Plays first two bars of chorus, then finishes on Eb.

Andrew Bee [*]
Composición de Paul McCartney
102 vistas

0 comentarios

Ver todos los comentarios
00:00 / 00:00
Outros vídeos desta música
Repetir Calidad Automático
Outros vídeos desta música
00:00 / 00:00
Automático
OK