Cifra Club

Driving Rain

Paul McCartney

Tablatura: Principal (guitarra)
Tom: D
Intro:      ...again      Refrão     Solo:
E|-----------|-----------|-----------|------------------------------------------------------
B|-----------|-----------|-----------|------------------------------------------------------
G|-----------|-----------|-----------|-6h7p6h7-6h7p6h7-4h6p4h6-4h6p4h6-6h7p6h7-6h7p6h7------
D|-2---------|-5-4-2-0---|-----------|------------------------------------------------------
A|---5-4-2-0-|---------0-|-4-5-4-0-2-|------------------------------------------------------
E|-----------|-----------|-----------|------------------------------------------------------

E|------------------------------------------------------------------
B|------------------------------------------------------------------
G|-4h6p4h6-4h6p4h6-2h3p2h3-2h3p2h3-0h2p0h2-0h2p0h2-0h2p0h2----------
D|---------------------------------------------------------5-4-2-0--
A|------------------------------------------------------------------
E|------------------------------------------------------------------


F#    Bm
12345 Let's go for a drive
F#     Bm                  A     G     A
678910 Let's go there and back again

D7M                       G
Something's open it's my heart
D7M                        G
Something's missing it's when we're apart
Bb7M                                 C7    C#º      D
If something's good it's when we're back together again

D7M                        G
Nothing wrong it's just insane
D7M                     G
Nothing's right until you're back again
Bb7M                        C7                     C#º               D
Nothing's broken when it's softly spoken and we're walking slowly down the lane

Em                         D7M
Why don't we drive in the rain
Em                          D7M
Straight to the eye of the hurricane
Em                    F#m     A
Go for a ride in the driving rain

12345 Let's go for a drive
678910 Oooh
12345 Let's go for a drive
678910 Let's go there and back again
Baby baby

You come walking through my door
Like the one that I've been waiting for
Letting sunshine in the darkest places when I've been going there again
reproducciones 121
Acordes para:
    Composição: Paul McCartney Colaboración y revision:
    • Guilherme Pereira

    0 comentarios

    mostrar más comentarios

    ¿Conseguiste tocar?

    0 tocaron 0 aún no

    ¡Graba un vídeo tocando Driving Rain y envianoslo!

    00:00 / 00:00
    outros vídeos desta música
    repetir qualidade Automático
    Outros vídeos desta música
    00:00 / 00:00
    Automático
    OK