Cifra Club

Everybody Out There

Paul McCartney

Tablatura: Principal (guitarra)
Tom: C
Intro:

E|-0-0-0-0-0-0-0-0-0-0-0-0-0-0-0|
B|-0-1-3-5-5-3-3-1-1-0-0-1-1-0-1|
G|------------------------------|
D|------------------------------|
A|------------------------------|
E|------------------------------|

E|-0-0-0-0-0-0-0-0-0-0-0-0-0-0-0--0-0-0-|
B|-0-1-3-5-5-3-3-1-1-0-0-1-1-0-1--0-1-0-|
G|--------------------------------------|
D|--------------------------------------|
A|--------------------------------------|
E|--------------------------------------|

F
Hey, everybody out there,
Am
You know what it's like,
G
When you haven't got a life,
         F              C
when you haven't got a life,
F
Hey, do you want to make a differance?

G|-2/5-5-5/7-5-|

Am
Well stand in the line,
G
If you haven't got the time,
        F                C
I could give you some of mine,

    F                           G7       Em      Am
For there but for the grace of God go you... And I,
    F                      G7      Am  C7
We're the brightest objects in the sky,
    F                           G7       Em     Am
For there but for the grace of God go you and I
    F                  G7      Am
Do some good before you say goodbye,
Intro:

E|-0-0-0-0-0-0-0-0-0-0-0-0-0-0-0|
B|-0-1-3-5-5-3-3-1-1-0-0-1-1-0-1|
G|------------------------------|
D|------------------------------|
A|------------------------------|
E|------------------------------|

E|-0-0-0-0-0-0-0-0-0-0-0-0-0-0-0--0-0-0-|
B|-0-1-3-5-5-3-3-1-1-0-0-1-1-0-1--0-1-0-|
G|--------------------------------------|
D|--------------------------------------|
A|--------------------------------------|
E|--------------------------------------|


  F
Hey, I was trying to remember
B|-------13h15p13~-----------------------------------------
G|-12/14---------------------------------------------------
 Am
How bad it was then,

B|-15-13-12------------------------------------------------
         F            C
When you didn't have a friend (x2)
B|-12-13-12-10--------------------------|
G|------------10-12---------------------|

F
Hey everybody out there (ooh ooh ooh ooh),
Am
Everybody out there,
F
Hey, everybody out there,
Am
Everybody out there.

    F                           G7       Em      Am
For there but for the grace of God go you... And I,
    F                      G7      Am  C7
We're the brightest objects in the sky,
    F                           G7       Em     Am
For there but for the grace of God go you and I
    F                  G7      Am
Do some good before you say goodbye,

Intro:

E|-0-0-0-0-0-0-0-0-0-0-0-0-0-0-0|
B|-0-1-3-5-5-3-3-1-1-0-0-1-1-0-1|
G|------------------------------|
D|------------------------------|
A|------------------------------|
E|------------------------------|

E|-0-0-0-0-0-0-0-0-0-0-0-0-0-0-0--0-0-0-|
B|-0-1-3-5-5-3-3-1-1-0-0-1-1-0-1--0-1-0-|
G|--------------------------------------|
D|--------------------------------------|
A|--------------------------------------|
E|--------------------------------------|

 F
Hey, everybody out there,
Am             G
Oh talk to me! I can't hear you, oh yeh yeh yeh yeh,
   F
Hey is anybody out there,
 Am              F
I know what it's like (x2)
Anybody out there, I can't hear you, I can't hear you,
Everybody out there
reproducciones 659
Acordes para:
    Composição: Paul McCartney Colaboración y revision:
    • bob973 ferreira

    0 comentarios

    mostrar más comentarios

    ¿Conseguiste tocar?

    3 tocaron 0 aún no

    ¡Graba un vídeo tocando Everybody Out There y envianoslo!

    00:00 / 00:00
    outros vídeos desta música
    repetir qualidade Automático
    Outros vídeos desta música
    00:00 / 00:00
    Automático
    OK