Cifra Club

Hello, Goodbye

Paul McCartney

Tablatura: Principal (guitarra)
Tom: F
hello, hello, hello...
E|------------------------------------------------------------------------
B|------------------------------------------------------------------------
G|-----------2-4-5----------2-------------2-4-5-----------2---------------
D|-----2-3-5----------2-3-5---------2-3-5-----------2-3-5----5-2----------
A|-3-5--------------------------3-5------------------------------5-3------
E|------------------------------------------------------------------------

go,go,go...                 Solo:
E|--------------------8--|--------------------------------------------------------------------8-
B|-----------------------|-6---6---6-------5-6-5-------5-6-8-6-5--------------------------------
G|-----------------------|---7---7-----5-7-------7-5-7-----------7-5-4--------------------------
D|-7-5-------------------|-----------7---------------------------------7-5-7-5------------------
A|-----8-7-5-------------|-----------------------------------------------------8-7-5------------
E|-----------8-7-5-3-----|-----------------------------------------------------------8-7-5-3----


F            C
You say yes, I say no,
G7                Am            G7 Am  G7
You say stop, and I say go, go, go. Oh no
                    F         C Em  Am G
You say goodbye and I say hello, hello, hello.
F                             G#           C Em  Am G
I don't know why you say goodbye, I say hello, hello, hello.
F                             Bb           C
I don't know why you say goodbye, I say hello.

I say high, you say low,
You say why, and I say I don't know.Oh no.
You say goodbye and I say hello, hello, hello.
I don't know why you say goodbye, I say hello, hello, hello.
I don't know why you say goodbye, I say hello.

Why, why, why, do you say goodbye, goodbye bye bye bye bye? Oh no.
You say goodbye and I say hello, hello, hello.
I don't know why you say goodbye, I say hello, hello, hello.
I don't know why you say goodbye, I say hello.

You say yes, I say no,
(I say yes),(but I mean no)
You say stop, I say go, go, go. Oh no.
(I can stay still it's time to go)
You say goodbye and I say hello, hello, hello.
I don't know why you say goodbye, I say hello, hello, hello.
I don't know why you say goodbye, I say hello.
F                                          G#       Cm       D/F#      F
I don't know why you say goodbye, I say hello-oh-oh-oh-oh-oh-oh-oh.
    C
Hello
reproducciones 542
Acordes para:

    0 comentarios

    mostrar más comentarios

    ¿Conseguiste tocar?

    0 tocaron 0 aún no

    ¡Graba un vídeo tocando Hello, Goodbye y envianoslo!

    00:00 / 00:00
    outros vídeos desta música
    repetir qualidade Automático
    Outros vídeos desta música
    00:00 / 00:00
    Automático
    OK