Cifra Club

Lady Madonna

Paul McCartney

Tablatura: Principal (guitarra)
Tom: C
Baixo:
E|-----------------------------------------------------------------
B|-----------------------------------------------------------------
G|-----------------------------------------------------------------
D|-------------4-7---------------4-7----------------------5-5-7----
A|-------4-5-5-------------4-5-5------------4-5-5-7-7-8-8----------
E|-5-5-7------------5-5-7-------------5-5-7------------------------

2°parte:
E|-----------------------------------------------------------------------------------------------
B|-----------------------------------------------------------------------------------------------
G|-----------------------------------------------------------------------------------------------
D|-----------------------------------------------2-2---------2-------------------2-----2---------
A|-5-5-3-3-2-2-------------2-2-------3-3-2-2-3-3---------3-5---5-3-----5-5-...-----5-3-----------
E|-------------5-5-3-3-5-5-----5-3-------------------5-5-----------5-----------------------------


[Intro:] A D   F G A

 A      D      A                D
Lady Madonna, children at your feet
 A              D           F     G  A
Wonder how you manage to make ends meet
     A         D     A                D
Who finds the money when you pay the rent
 A                  D     F   G      A
Did you think that money was heaven sent?

 Dm                             G
Friday night arrives without a suitcase
 C                             Am
Sunday morning creeping like a nun
 Dm                                    G
Monday's child has learned to tie his bootlace.
 C   Bm         E4 E
See how they'll run.

Lady Madonna, baby at your breast
Wonder how you manage to feet the rest
Lady Madonna, lying in your bed
Listen to the music playing in your head

Tuesday afternoon is never ending,
Wednesday morning papers didn't come
Thursday night your stockings needed mending
See how they'll run
reproducciones 480
Acordes para:

    0 comentarios

    mostrar más comentarios

    ¿Conseguiste tocar?

    0 tocaron 0 aún no

    ¡Graba un vídeo tocando Lady Madonna y envianoslo!

    00:00 / 00:00
    outros vídeos desta música
    repetir qualidade Automático
    Outros vídeos desta música
    00:00 / 00:00
    Automático
    OK