Cifra Club

Live and let die

Paul McCartney

Tablatura: Principal (guitarra)
Tom: C
Solo:
E|----------------------------------------------------|
B|-8-10-11---------------8-10-11---------12--11-------|
G|---------7-9-10----------------7-9-10---------------|
D|----------------10-8--------------------------------|
A|----------------------------------------------------|
E|----------------------------------------------------|

G               Bm             C         D7      D7(b9)
When you were young and your heart was an open book
G            Bm           C
You used to say live and let live
D                       C/D              Cm/D      G
(You know you did, you know you did you know you did)
          Bm             C                    A
But this ever changing world in which we live in makes you
 D
give in and cry

Bb/D                         G7
      Say live and let die
C/G                 Gdim
      Live and let die
G7
      Live and let die
C/G                Gm
      Live and let die

C9
     What does it matter to ya
G7
     When you got a job to do
          D7
You gotta do it well
          Em                     F
You gotta give the other fellow hell

E|--------------------------------------------------------------------|
B|--------------------------------------------------------------------|
G|---------4----5-----7--------4----5----7----------4----5-------7----|
D|---5-----4----5-----7---5----4----5----7-----5----4----5---7---7----|
A|---5-----2----3-----5---5----2----3----5-----5----2----3---7---5----|
E|---3--------------------3--------------------3-------------5--------|
1ST VERSE

E|---------------------------------------------------------------------|
B|---------------------------------------------------------------------|
G|-------------------5--6--7-------5--6--7-----------------------------|
D|---------------5---5--5--5----5--5--5--5-----------------------------|
A|---5--7--8-----5--------------5--------------------------------------|
E|---------------3---3--3--3----3--3--3--3-----------------------------|
CHORUS

E|------------------------------------------------------------------|
B|------------------------------------------------------------------|
G|------------------------------------------------------------------|
D|---5--7--8--------------------------5--7--8-----------------------|REPEAT 1X
A|---------------5--7--8---3--1-----------------5--7--8---3--1------|
E|---------------------------------3--------------------------------|
INSTRUMENTAL

E|--------------------------------------------------------------------|
B|--------------------------------------------------------------------|
G|--------------------------------------------------------------------|
D|--5---5---5---5---5---5---5---5---5---5---5---5---5---5---5---5---5-|
A|--5---5---5---5---5---5---5---5---5---5---5---5---5---5---5---5---5-|
E|--3---3---3---3---3---3---3---3---3---3---3---3---3---3---3---3---3-|
[OPTIONAL SOLO instead of chords]




E|------------------------------------------------------------------------|
B|------------------------------------------------------------------------|
G|--5--5---------------7--7-----9--10-------------------------------------|
D|--5--5------5--5-----7--7-----9--10-------------------------------------|
A|--3--3------5--5-----5--5-----7--8--------------------------------------|
E|------------3--3--------------------------------------------------------|
2ND VERSE

page 1

E|------------------------------------------------------------------|
B|------------------------------------------------------------------|
G|------------------------------------------------------------------|
D|---5--7--8--------------------------5--7--8-----------------------|REPEAT 1X
A|---------------5--7--8---3--1-----------------5--7--8---3--1------|
E|---------------------------------3--------------------------------|
INSTRUMENTAL

E|----------------------------------------------------------------------|
B|----------------------------------------------------------------------|
G|------------4-------5--------7----------------------------------------|
D|---5--------4-------5--------7----------------------------------------|
A|---5--------2-------3--------5----------------------------------------|
E|---3------------------------------------------------------------------|
SLOW FOR LAST VERSE

E|----------------------------------------------------------------------|
B|----------------------------------------------------------------------|
G|---------4----5-----7----------4----5-------7-------------------------|
D|---5-----4----5-----7-----5----4----5---7---7-------------------------|
A|---5-----2----3-----5-----5----2----3---7---5-------------------------|
E|---3----------------------3-------------5-----------------------------|
LAST VERSE

E|------------------------------------------------------------------------|
B|------------------------------------------------------------------------|
G|-------------------5--6--7-------5--6--7--------------------------------|
D|---------------5---5--5--5----5--5--5--5--------------------------------|
A|---5--7--8-----5--------------5-----------------------------------------|
E|---------------3---3--3--3----3--3--3--3--------------------------------|
CHORUS

E|------------------------------------------------------------------|
B|------------------------------------------------------------------|
G|------------------------------------------------------------------|
D|---5--7--8--------------------------5--7--8-----------------------|REPEAT 4X
A|---------------5--7--8---3--1-----------------5--7--8---3--1------|
E|---------------------------------3--------------------------------|
reproducciones 5.086
Acordes para:
    Composição: Linda McCartney / Paul McCartney Colaboración y revision:

    0 comentarios

    mostrar más comentarios

    ¿Conseguiste tocar?

    17 tocaron 2 aún no

    ¡Graba un vídeo tocando Live and let die y envianoslo!

    00:00 / 00:00
    outros vídeos desta música
    repetir qualidade Automático
    Outros vídeos desta música
    00:00 / 00:00
    Automático
    OK