Cifra Club

Maybe I'm Amazed

Paul McCartney

Tablatura: Principal (guitarra)
Tom: G
Intro: D/F#  F6  Em  A7

Bb          F/A                  C               G/C
Maybe I'm amazed at the way you love me all the time
Bb               F/A               C
And maybe I'm afraid of the way I love you
Bb          F/A                  C                G/C
Maybe I'm amazed at the way you pulled me out of time
     Bb             F/A
You hung me on a line
     Ab                      Eb/G         C
And maybe I'm amazed at the way I really need you

D           D7M
Baby I'm a man
             D7
Maybe I'm a lonely man who's in the middle of something
G                             D
That he doesn't really understand
            D7M
Baby I'm a man
                     D7                   D6
And maybe you're the only woman who could ever help me
G                                 D/F#  F6 Em A7
Baby won't you help me to understand

Solo:
E|-----------5-----------------------------5---------------------------5-------------------------|
B|-----6-8-6---8-6-----5-6-5---------6-8-6---8-6-----5h6p5-------6-8-6---8-6-----5-6-5-----------|
G|-5/7-------------7-5-------7---5/7-------------7-5-------5---7-------------7-5-------7---4-----|
D|---------------------------------------------------------------------------------------7---7-5-|
A|-----------------------------------------------------------------------------------------------|
E|-----------------------------------------------------------------------------------------------|
                                                           Fim:
E|--------------------------------------------------------|-----5-------5-------5----10h11p10----|
B|---4---------------------------------------0---6---8-8--|---7---7---7---7---7---7--------------|
G|-7---7-5-----------5-7-5------5--5-------0---7---7------|-7-------6-------5--------------------|
D|---------5-7-5-----------8--8------8-6-5----------------|--------------------------------------|
A|---------------8----------------------------------------|--------------------------------------|
E|--------------------------------------------------------|--------------------------------------|

D           D7M
Baby I'm a man
             D7
Maybe I'm a lonely man who's in the middle of something
G                            D
That he doesn't really understand
            D7M
Baby I'm a man
                     D7
And maybe you're the only woman who could ever help me
G                                 D/F#  F6 Em A7
Baby won't you help me to understand

Bb          F/A                  C               G/C
Maybe I'm amazed at the way you're with me all the time
Bb               F/A               C
Maybe I'm afraid of the way I live you
Bb          F/A                  C                G/C
Maybe I'm amazed at the way you help me sing my song
     Bb             F/A
You right me when I'm wrong
     Ab                      Eb/G         C
And maybe I'm amazed at the way I really need you

             Bb
Maybe I'm amazed
              G
Maybe I'm amazed
 Bb
Yeah!
              G
Maybe I'm amazed
 Bb
Yeah! Yeah! Yeah!
              G
Maybe I'm amazed
  A           D D7M D7
Amazed with you
reproducciones 8.377
Acordes para:
    Composição: Paul McCartney Colaboración y revision:
    • Pedro Vaz
    • Pedro Arantes
    • Rafael Melo

    0 comentarios

    mostrar más comentarios

    ¿Conseguiste tocar?

    20 tocaron 0 aún no

    ¡Graba un vídeo tocando Maybe I'm Amazed y envianoslo!

    00:00 / 00:00
    outros vídeos desta música
    repetir qualidade Automático
    Outros vídeos desta música
    00:00 / 00:00
    Automático
    OK