Cifra Club

My love

Paul McCartney

Chords: Principal (acoustic and electric guitars)
tone: F
Bb7M
And when I go away
                             Am
I know my heart can stay with my love
             D7(9)  D9/C
It's understood
     Bb7M   F/A      Gm
It's in the hands of my love
     Am     Bb7M     Bm7(5-)
And my love does it goooood
       F
Wo-wo-wo-wo
       Gm   F/A
Wo-wo-wo-wo
 Bb7M               F
My love does it good

Bb7M
And when the cupboard's bare
                                    Am
I'll still find something there with my love
           D7(9) D9/C
It's understood
     Bb7M   F/A      Gm
It's everywhere with my love
   Am    Bb7M     Bm7(5-)
My love does it goooood
       F
Wo-wo-wo-wo
      Gm   F/A
Wo-wo-wo-wo
Bb7M                F
My love does it good

      Gm Gm/F C7/E     F     A7(5+)
Oh wo! I love, oh wo! My love
     Bb7M     C7             F       A7(5+)
Only my love holds the other key, to me
       Gm  Gm/F C7/E   F     F5+
Oh wo! My love, oh wo! My love
     Bb7M               C7      F
Only my love does it good to me

[Tab - Solo] 

E|-6----------6----------------------5-8-5-----------------------------------------------|
B|---8-6--------8-6-----6-8-6------6-------8-6-7---8-8-8-8-----------------10-10-10-10---|
G|-------5h7--------5/7-------7-5----------------5---------------------------------------|
D|---------------------------------------------------------8h9p8h9-8h9-8h9---------------|
A|---------------------------------------------------------------------------------------|
E|---------------------------------------------------------------------------------------|

E|------------------------------10-13-13---------------------10-13-10-----|
B|------------------------10-13------------------------10-13--------------|
G|-----------------10-12------------------------10-12---------------------|
D|-9-10--10--10-12------------------------10-12---------------------------|
A|------------------------------------------------------------------------|
E|------------------------------------------------------------------------|
           F
Wo-wo-wo-wo
      Gm     F/A
Wo-wo-wo-wo
Bb7M                F
My love does it good

Bb7M
Don't ever ask me why
                           Am
I never say goodbye to my love
             D7(9) D9/C
It's understood
     Bb7M   F/A      Gm
It's everywhere with my love
  Am         Bb7M     Bm7(5-)
And my love does it good
         F
Wo-wo-wo-wo
        Gm    F/A
Wo-wo-wo-wo
Bb7M              F
My love does it good

       Gm Gm/F C7/E   F     A7(5+)
Oh wo! I love, oh wo! My love
     Bb7M           C7         F
Only my love does it good to me
A7          Bb7M  C7        F
Wo-wo-wo-wo-oh-wo-oh-wo-wo-wo
00:00 / 00:00
Other videos of this song
Repeat
Other videos of this song
Composed by Linda McCartney / Paul McCartney
20.786 views
    • ½ Tone
    • A
    • Bb
    • B
    • C
    • Db
    • D
    • Eb
    • E
    • F
    • F#
    • G
    • Ab
  • Add to list
    00:00 / 00:00
    OK