Cifra Club

My Valentine

Paul McCartney

Tablatura: Principal (guitarra)
Tom: C
Intro: Cm  Dm  Cm7  Dm  Cm  Dm  Cm

Primeira guitarra:

E|-----6---------8-------------|
B|-----------------------------|
G|-6/8----8-8/10---8/10~--8----|
D|--------------------------10-|
A|-----------------------------|
E|-----------------------------|

Segunda guitarra:

E|-------------|-------------|-------------|
B|--------4----|-------------|--------4----|
G|----3-5---5~-|-------------|----3-5---5~-|
D|-/5----------|-8-----------|-/5----------|
A|-------------|---6-6/8-6-3-|-------------|
E|-------------|-------------|-------------|

           Cm                Eb
What if it rained? We didn't care
              F                Fm            Cm/Eb
She said that someday soon the sun was gonna shine
            D7                  G
And she was right, this love of mine,
        Cm    Dm   Cm
My valentine

            Cm                   Eb
As days and nights would pass me by
         F               Fm            Cm/Eb
I tell myself that I was waiting for a sign
          D7                 Gsus4  G
Then she appeared, a love so fine,
          Cm   Dm   C
My valentine

           Fmaj7        Cmaj7
And I will love her for life
           Fmaj7              Am
And I will never let a day go by
          Fmaj7                  Dm
Without remembering the reasons why
              Fmaj7             Gsus4  G
She makes me certain that I can fly

         Cm            Eb
And so I do, without a care
            F                Fm           Cm/Eb
I know that someday soon the sun is gonna shine
              D7                  Gsus4  G
And she'll be there, this love of mine,

        Cm  Dm  C
My valentine
E|------------------8-11-8~~-|--------------|
B|-8-8-8-8-8-8-8-11----------|--------------|
G|---------------------------|--------------|
D|---------------------------|-8------------|
A|---------------------------|---6-6/8-6-5~-|
E|---------------------------|--------------|

Solo:Fmaj7 Cmaj7  Fmaj7  Am Fmaj7  Dm Fmaj7  G


E|--------------------|-----------|------------------------------------------|
B|--------/10-10-10~~-|--------8~-|--------/10-10--8--8--6--5-----------8----|
G|-/5-4-5-------------|-/5-4-5----|-/5-4-5---------------------7-5-7/9----9~-|
D|--------------------|-----------|------------------------------------------|
A|--------------------|-----------|------------------------------------------|
E|--------------------|-----------|------------------------------------------|

E|---------------------|------------|-------------------|--------------|
B|-13-10/12--8-8/10-10-|-/10-8------|---5-6-5-----------|--------------|
G|---------------------|-------9-10-|-7-------7p5-----5-|------4-5-7~~-|
D|---------------------|------------|-------------5h7---|-/5-7---------|
A|---------------------|------------|-------------------|--------------|
E|---------------------|------------|-------------------|--------------|

E|-----------------|
B|-----------------|
G|-5-4-5-7--10-8~~-|
D|-----------------|
A|-----------------|
E|-----------------|

            Cm                Eb
What if it rained? We didn't care
               F                Fm           Cm/Eb
She said that someday soon the sun was gonna shine
            D7                  Gsus4  G
And she was right, this love of mine,
         Cm  Dm  Cm7  Dm  Cm  Dm  Csus2
My valentine
reproducciones 8.895
Acordes para:

    0 comentarios

    mostrar más comentarios

    ¿Conseguiste tocar?

    18 tocaron 1 aún no

    ¡Graba un vídeo tocando My Valentine y envianoslo!

    00:00 / 00:00
    outros vídeos desta música
    repetir qualidade Automático
    Outros vídeos desta música
    00:00 / 00:00
    Automático
    OK