Cifra Club

Aprenda

No More Lonely Nights

Paul McCartney

Tablatura: Principal (guitarra)
Tom: F
                       Gm7/F   C7             Dm       C   Bb
  I can't wait another day         until I call you
       C7          F          A7         Dm        C          Bb      C/Bb
You've only got my heart on a string and everything a flutter
                   Gm7/F     C7
But another lonley night
               Dm      C   Bb
might take forever
      C7             F        A7
We've only got each other to blame
     Dm        C        Bb
It's all the same to me love

         C/Bb              F/A          Bb
'Cause I know      what I feel     to be right

Refrão:

         Bb  C   F
E|----1---0---1----------------------|
B|----3---1---1----1-1---------------|
G|----3---0---2--------2-2-----------|
D|----3---2---3------------3-3-------|
A|----1---3---3----------------------|
E|------------1----------------------|

Bb          C      F     F/A
No more lonely nights
Bb          C       F    F/A
No more lonely nights
Bb         C        Dm
You're my guiding light
Gm7                      C7
Day or night I'm always there

                      Gm7/F  C7             Dm       C   Bb
May I never miss the thrill of being near you
     C              F       A7
And if it takes a couple of years
   Dm         C             Bb
To turn your tears to laughter

       C/Bb              F             Bb
I will do       what I feel     to be right

    Bb  C   F
E|----1---0---1----------------------|
B|----3---1---1----1-1---------------|
G|----3---0---2--------2-2-----------|
D|----3---2---3------------3-3-------|
A|----1---3---3----------------------|
E|------------1----------------------|

Bb          C      F      F/A
No more lonely nights
                 Bb
Never be another
            C     F     F/A
No more lonely nights
Bb            C     Dm
You're my guiding light
Gm7                     C7
Day or night I'm always there
      Bb/C                     C7
And I won't go away until you tell me so
        Bb/C       C7
No I'll never go away

Solo: Gm7/F  C  Dm  C  Bb  C  F  A7  Dm  C  Bb

E|-11/13~---------------13b15-13-13-12-13-----13-13-12-13-15-17-18-17-15--13-13-13-17-20-22~~~-|
B|--------15-13-15-13-15-----------------13-15-------------------------------------------------|
G|---------------------------------------------------------------------------------------------|
D|---------------------------------------------------------------------------------------------|
A|---------------------------------------------------------------------------------------------|
E|---------------------------------------------------------------------------------------------|

        C7                F              Bb
Yes I know       what I feel     to be right

  Bb       C      F     F/A
No more lonely nights
                 Bb
Never be another
            C     F     F/A
No more lonely nights
Bb          C     Dm
You're my guiding light
 Gm7                    C7
Day or night I'm always there
      Bb/C                      C7
And I won't go away until you tell me so
        Bb/C          C7
No I'll never go away
   Bb/C                     C7
I won't go away until you tell me so
        Bb/C          C7
No I'll never go away
               Bb/C       C7      Abm7 ...
No more lonely nights, no more...
Compositor Paul McCartney 5.824 reproducciones
    • ½ Tom
    • A
    • Bb
    • B
    • C
    • Db
    • D
    • Eb
    • E
    • F
    • F#
    • G
    • Ab
  • Adicionar à lista

    0 comentarios

    Mostrar mais comentários

    ¿Conseguiste tocar?

    8 Tocaron 0 Ainda não

    Grave um vídeo tocando No More Lonely Nights e mande pra gente!

    00:00 / 00:00
    outros vídeos desta música
    repetir qualidade Automático
    Outros vídeos desta música
    00:00 / 00:00
    Automático
    OK