Cifra Club

This One

Paul McCartney

Tablatura: Principal
reproducciones 324
Tono: D
       A5                  F#5
Did I ever take you in my arms
                C#5                D5
Look you in the eye, tell you that I do
       A5              E5
Did I ever open up my heart
                  A5
And let you look inside

           E7sus4 E            A      F#m
If I never did it, I was only waiting
              Bm    E             A
For a better moment   that didn't come
             E7sus4 E          A     F#m
There never could be a better moment
      Bm7  E         A
Than this one, this one

The swan is gliding above the ocean
A god is riding upon his back
How calm the water and bright the rainbow
Fade this one to black

Did I ever touch you on the cheek
Say that you were mine, thank you for the smile
Did I ever knock upon your door
And try to get inside

If I never did it, I was only waiting
For a better moment that didn't come
There never could be a better moment
Than this one, this one

The swan is gliding above the ocean
A god is riding upon his back
How calm the water and bright the rainbow
Fade this one to black

D          E           A            F#m
What opportunities did we allow to flow by
G                 Em             A
Feeling like the timing wasn't quite right
D             E                A                F#m
What kind of magic might have worked if we had stayed calm
G                            E
Couldn't I have given you a better life...

 better life...
E|--------------------------------------------12------|
B|------------------------------------5-7s9-----------|
G|-----------------------------4-4h6------------------|
D|-----------------------2-4s6------------------------|
A|-------2---------2-2h4------------------------------|
E|--12/--0----0-4b------------------------------------|


Did you ever take me in your arms
Look me in the eye, tell me that you do
Did I ever open up my heart
Let you look inside


E|--------------------------------------------------------|
B|-----------------------------10~------------------------|
G|--11br-9~--------------9h11-----9h11p9------------------|
D|----------9br-7~-----------------------9h11h9-----------|
A|----------------------------------------------12--------|
E|--------------------------------------------------------|


If I never did it, I was only waiting
For a better moment that didn't come
There never could be a better moment
Than this one, this one

The swan is gliding above the ocean
A god is riding upon his back
How calm the water and bright the rainbow
Fade this one to black
Acordes para:
    Compositor: Paul McCartneyColaboración y revision:
    • Lucas Catelli
    • Marco Rotta
    • Guilherme Pereira

    0 comentarios

      mostrar más comentarios

      ¿Conseguiste tocar?

      1tocaron1aún no

      ¡Graba un vídeo tocando This One y envianoslo!

      00:00 / 00:00
      outros vídeos desta música
      repetirqualidadeautomática
      Outro vídeos desta música
        00:00 / 00:00
        automática
        OK