Cifra Club

The boxer

Paul Simon

Cifrado: Versão 2 (guitarra y guitarra eléctrica)
tono: C
E ai Pessoal..
Bom da partitura o solo pra quem naum tem o guitar pro, espero q aproveitem.
tem tbm as notas se for ajudar vcs neh.. Abração! 

C Am G G7 G6 F Bm
E||-------------------|--3p--0-----0--------0-----|-----0--------------------|
B||-------------------|---------3-----3--------3--|--------3-----1--------1--|
G||-------------------|------------------3--------|--0--------0-----3--0-----|
D||-------------------|---------------------------|--------------------------|
A||-------------------|---------------------------|--------------------------|
E||-------------------|---------------------------|--------------------------|
 
-------------------------|--------------------------|
----------------1--------|-----1-----------1--------|
----------0-----------0--|-----------0-----------0--|
-------2-----------2-----|--------2-----------2-----|
--3----------------------|--3-----------------------|
-------------3-----------|--------------3-----------|
  
----------------------------------------------------|--------------------------|
-------------------------------1-----------1--------|-----1-----------1--------|
-------------------------------------0-----------0--|-----------0-----------0--|
----------------------------------2-----------2-----|--------2-----------2-----|
--3-------------------------------------------------|--3-----------------------|
----------------------------------------3-----------|--------------3-----------|
  
--------------------------|--------------------------|----------3--------------|
-----1-----------1--------|-----1-----------1--------|----------------0--------|
-----------0-----------0--|-----------2--------0-----|-------0-----------0-----|
--------2-----------0-----|--------2--------------2--|-------0--------------0--|
--3-----------------------|--0-----------0-----------|-------------------------|
--------------3-----------|--------------------------|--3----------3-----------|
   
--3---------------------|--1---------------------|--0---------------------|
----------0-------------|----------0-------------|----------0-------------|
----------------0-------|----------------0-------|----------------0-------|
-------0-----------0----|-------0-----------0----|-------0-----------0----|
------------------------|------------------------|------------------------|
--3----------3----------|--3----------3----------|--3----------3----------|
 
--------------------------|--------------------------|
-----1-----------1--------|-----1-----------1--------|
-----------0-----------0--|-----------0-----------0--|
--------2-----------2-----|--------2-----------2-----|
--3-----------------------|--3-----------------------|
--------------3-----------|--------------3-----------|
  
--------------------------|--------------------------|-------3--3--------------|
-----1-----------1--------|-----1-----------1--------|----------------0--------|
-----------0-----------0--|-----------2--------0-----|-------------------0-----|
--------2-----------0-----|--------2--------------2--|-------0--------------0--|
--3-----------------------|--0-----------0-----------|-------------------------|
--------------3-----------|--------------------------|--3----------3-----------|
  
----------1--------------|----------1--------------|-------0--------------|
----------------1--------|----------------1--------|-------1----3----1----|
-------2--------------2--|-------2--------------0--|-------0--------------|
-------3-----------3-----|-------3-----------3-----|-------2--------------|
-------------------------|-------------------------|--3---------2----0----|
--1----------1-----------|--1----------1-----------|----------------------|
  
----------3--------------|----------3--------------|--1-------0-------------|
--0-------------0--------|----------------0--------|----------------3-------|
----------------------0--|----------------------0--|------------------------|
-------0-----------0-----|-------0-----------0-----|-------0-----------0----|
-------------------------|-------------------------|------------------------|
--3----------3-----------|--3----------3-----------|--3----------3----------|
----------------1p--0-----|----------------1p--0-----|
-----------------------1--|-----------------------1--|
----------0---------------|----------0---------------|
-------2------------2-----|-------2------------2-----|
--3-----------------------|--3-----------------------|
-------------3------------|-------------3------------|
----------------1p--0-----|---------------------------------------------------|
-----------------------1--|-----1------------------------------------1--------|
----------0---------------|------------------------------------0-----------0--|
-------2------------2-----|--------2------------------------------------2-----|
--3-----------------------|--3------------------------------------------------|
-------------3------------|---------------------------------------3-----------|
  
--------------------------|--------------------------|
-----1-----------1--------|-----1-----------1--------|
-----------0-----------0--|-----------0-----------0--|
--------2-----------2-----|--------2-----------2-----|
--3-----------------------|--3-----------------------|
--------------3-----------|--------------3-----------|
 
--------------------------|--------------------------|----------3--------------|
-----1-----------1--------|-----1-----------1--------|----------------0--------|
-----------0-----------0--|-----------2--------0-----|-------0-----------0-----|
--------2-----------0-----|--------2--------------2--|-------0--------------0--|
--3-----------------------|--0-----------0-----------|-------------------------|
--------------3-----------|--------------------------|--3----------3-----------|
   
--3---------------------|--1---------------------|--0---------------------|
----------0-------------|----------0-------------|----------0-------------|
----------------0-------|----------------0-------|----------------0-------|
-------0-----------0----|-------0-----------0----|-------0-----------0----|
------------------------|------------------------|------------------------|
--3----------3----------|--3----------3----------|--3----------3----------|
--------------------------|--------------------------|
-----1-----------1--------|-----1-----------1--------|
-----------0-----------0--|-----------0-----------0--|
--------2-----------2-----|--------2-----------2-----|
--3-----------------------|--3-----------------------|
--------------3-----------|--------------3-----------|
--------------------------|--------------------------|-------3--3--------------|
-----1-----------1--------|-----1-----------1--------|----------------0--------|
-----------0-----------0--|-----------2--------0-----|-------------------0-----|
--------2-----------0-----|--------2--------------2--|-------0--------------0--|
--3-----------------------|--0-----------0-----------|-------------------------|
--------------3-----------|--------------------------|--3----------3-----------|
  
----------1--------------|----------1--------------|--0----------------------|
----------------1--------|----------------1--------|--1-------------1--------|
-------2--------------2--|-------2--------------0--|--0-------0-----------0--|
-------3-----------3-----|-------3-----------3-----|--2----2-----------2-----|
-------------------------|-------------------------|--3----------------------|
--1----------1-----------|--1----------1-----------|-------------3-----------|
  
----------3-------------|--1-------0-------------|----------------1p--0-----|
--0-------------0-------|----------------3-------|-----------------------1--|
-------0----------------|------------------------|--------------------------|
-------0-----------0----|-------0-----------0----|----------0---------2-----|
------------------------|------------------------|--3----2------------------|
--3----------3----------|--3----------3----------|-------------3------------|
  
-------0------------------------|--------------------------|
-------1---------------1--------|-----1-----------1--------|
-------0---------------------0--|-----------2--------0-----|
-------2------------------0-----|--------2--------------2--|
--3---------2-------------------|--0-----------0-----------|
--------------------------------|--------------------------|
  
--------------------------|----------------3--------|----------------3--------|
-----1-----------1--------|-------------------------|-------------------------|
-----------2--------0-----|----------0-----------0--|----------0-----------0--|
--------2--------------2--|-------0-----------0-----|-------0-----------0-----|
--0-----------0-----------|-------------------------|-------------------------|
--------------------------|--3----------3-----------|--3----------3-----------|
--------------------------|--------------------------|----------------3--------|
-----1-----------1--------|-----1-----------1--------|-------------------------|
-----------2--------0-----|-----------2--------0-----|----------0-----------0--|
--------2--------------2--|--------2--------------2--|-------0-----------0-----|
--0-----------0-----------|--0-----------0-----------|-------------------------|
--------------------------|--------------------------|--3----------3-----------|
  
----------------3--------|-------------------------|-------------------------|
-------------------------|----------------1--------|----------------1--------|
----------0-----------0--|----------0-----------0--|----------0-----------0--|
-------0-----------0-----|-------2-----------2-----|-------2-----------2-----|
-------------------------|--3----------------------|--3----------------------|
--3----------3-----------|-------------3-----------|-------------3-----------|

-------------------------|--0-----------------||
----------------1--------|--1-----------------||
----------0-----------0--|--0-----------------||
-------2-----------2-----|--2-----------------||
--3----------------------|--3-----------------||
-------------3-----------|--------------------||
Composición de Paul Simon
5 vistas
    • ½ Tono
    • A
    • Bb
    • B
    • C
    • Db
    • D
    • Eb
    • E
    • F
    • F#
    • G
    • Ab
  • Agregar a la lista

    0 comentarios

    Ver todos los comentarios

    ¿Lograste tocar?

    0 Tocaron 0 Aún no

    ¡Graba un video tocando The boxer y envíanoslo!

    00:00 / 00:00
    Outros vídeos desta música
    Repetir Calidad Automático
    Outros vídeos desta música
    00:00 / 00:00
    Automático
    OK